  0
SECTION
  2
HEADER
  9
$ACADVER
  1
AC1015
  9
$ACADMAINTVER
 70
    20
  9
$DWGCODEPAGE
  3
ANSI_936
  9
$INSBASE
 10
0.0
 20
0.0
 30
0.0
  9
$EXTMIN
 10
16.02962490884695
 20
13.61286952153979
 30
0.0
  9
$EXTMAX
 10
426.029624908847
 20
189.0132627454397
 30
0.0
  9
$LIMMIN
 10
0.0
 20
0.0
  9
$LIMMAX
 10
17.0
 20
11.0
  9
$ORTHOMODE
 70
     0
  9
$REGENMODE
 70
     1
  9
$FILLMODE
 70
     1
  9
$QTEXTMODE
 70
     0
  9
$MIRRTEXT
 70
     1
  9
$LTSCALE
 40
1.0
  9
$ATTMODE
 70
     1
  9
$TEXTSIZE
 40
0.2
  9
$TRACEWID
 40
0.05
  9
$TEXTSTYLE
  7
STANDARD
  9
$CLAYER
  8
0
  9
$CELTYPE
  6
ByLayer
  9
$CECOLOR
 62
   256
  9
$CELTSCALE
 40
1.0
  9
$DISPSILH
 70
     0
  9
$DIMSCALE
 40
1.0
  9
$DIMASZ
 40
0.12
  9
$DIMEXO
 40
0.05
  9
$DIMDLI
 40
0.5
  9
$DIMRND
 40
0.0
  9
$DIMDLE
 40
0.0
  9
$DIMEXE
 40
0.1
  9
$DIMTP
 40
0.1
  9
$DIMTM
 40
0.1
  9
$DIMTXT
 40
0.12
  9
$DIMCEN
 40
0.0
  9
$DIMTSZ
 40
0.0
  9
$DIMTOL
 70
     0
  9
$DIMLIM
 70
     0
  9
$DIMTIH
 70
     1
  9
$DIMTOH
 70
     1
  9
$DIMSE1
 70
     0
  9
$DIMSE2
 70
     0
  9
$DIMTAD
 70
     0
  9
$DIMZIN
 70
     7
  9
$DIMBLK
  1

  9
$DIMASO
 70
     1
  9
$DIMSHO
 70
     1
  9
$DIMPOST
  1

  9
$DIMAPOST
  1
mm
  9
$DIMALT
 70
     0
  9
$DIMALTD
 70
     2
  9
$DIMALTF
 40
25.4
  9
$DIMLFAC
 40
1.0
  9
$DIMTOFL
 70
     0
  9
$DIMTVP
 40
0.0
  9
$DIMTIX
 70
     0
  9
$DIMSOXD
 70
     0
  9
$DIMSAH
 70
     0
  9
$DIMBLK1
  1

  9
$DIMBLK2
  1

  9
$DIMSTYLE
  2
AM_ANSI
  9
$DIMCLRD
 70
   256
  9
$DIMCLRE
 70
   256
  9
$DIMCLRT
 70
   140
  9
$DIMTFAC
 40
0.71
  9
$DIMGAP
 40
0.06
  9
$DIMJUST
 70
     0
  9
$DIMSD1
 70
     0
  9
$DIMSD2
 70
     0
  9
$DIMTOLJ
 70
     1
  9
$DIMTZIN
 70
     7
  9
$DIMALTZ
 70
     0
  9
$DIMALTTZ
 70
     0
  9
$DIMUPT
 70
     0
  9
$DIMDEC
 70
     4
  9
$DIMTDEC
 70
     4
  9
$DIMALTU
 70
     2
  9
$DIMALTTD
 70
     4
  9
$DIMTXSTY
  7
STANDARD
  9
$DIMAUNIT
 70
     0
  9
$DIMADEC
 70
     0
  9
$DIMALTRND
 40
0.0
  9
$DIMAZIN
 70
     2
  9
$DIMDSEP
 70
    46
  9
$DIMATFIT
 70
     3
  9
$DIMFRAC
 70
     0
  9
$DIMLDRBLK
  1

  9
$DIMLUNIT
 70
     2
  9
$DIMLWD
 70
    -1
  9
$DIMLWE
 70
    -1
  9
$DIMTMOVE
 70
     0
  9
$LUNITS
 70
     2
  9
$LUPREC
 70
     4
  9
$SKETCHINC
 40
0.1
  9
$FILLETRAD
 40
0.125
  9
$AUNITS
 70
     0
  9
$AUPREC
 70
     0
  9
$MENU
  1
.
  9
$ELEVATION
 40
0.0
  9
$PELEVATION
 40
0.0
  9
$THICKNESS
 40
0.0
  9
$LIMCHECK
 70
     0
  9
$CHAMFERA
 40
0.125
  9
$CHAMFERB
 40
0.125
  9
$CHAMFERC
 40
1.0
  9
$CHAMFERD
 40
0.0
  9
$SKPOLY
 70
     0
  9
$TDCREATE
 40
2455303.615051064
  9
$TDUCREATE
 40
2455303.281717732
  9
$TDUPDATE
 40
2455303.643555972
  9
$TDUUPDATE
 40
2455303.310222639
  9
$TDINDWG
 40
0.0032130324
  9
$TDUSRTIMER
 40
0.0032130324
  9
$USRTIMER
 70
     1
  9
$ANGBASE
 50
0.0
  9
$ANGDIR
 70
     0
  9
$PDMODE
 70
     0
  9
$PDSIZE
 40
0.0
  9
$PLINEWID
 40
0.0
  9
$SPLFRAME
 70
     0
  9
$SPLINETYPE
 70
     6
  9
$SPLINESEGS
 70
     8
  9
$HANDSEED
  5
10D3
  9
$SURFTAB1
 70
     6
  9
$SURFTAB2
 70
     6
  9
$SURFTYPE
 70
     6
  9
$SURFU
 70
     6
  9
$SURFV
 70
     6
  9
$UCSBASE
  2

  9
$UCSNAME
  2

  9
$UCSORG
 10
0.0
 20
0.0
 30
0.0
  9
$UCSXDIR
 10
1.0
 20
0.0
 30
0.0
  9
$UCSYDIR
 10
0.0
 20
1.0
 30
0.0
  9
$UCSORTHOREF
  2

  9
$UCSORTHOVIEW
 70
     0
  9
$UCSORGTOP
 10
0.0
 20
0.0
 30
0.0
  9
$UCSORGBOTTOM
 10
0.0
 20
0.0
 30
0.0
  9
$UCSORGLEFT
 10
0.0
 20
0.0
 30
0.0
  9
$UCSORGRIGHT
 10
0.0
 20
0.0
 30
0.0
  9
$UCSORGFRONT
 10
0.0
 20
0.0
 30
0.0
  9
$UCSORGBACK
 10
0.0
 20
0.0
 30
0.0
  9
$PUCSBASE
  2

  9
$PUCSNAME
  2

  9
$PUCSORG
 10
0.0
 20
0.0
 30
0.0
  9
$PUCSXDIR
 10
1.0
 20
0.0
 30
0.0
  9
$PUCSYDIR
 10
0.0
 20
1.0
 30
0.0
  9
$PUCSORTHOREF
  2

  9
$PUCSORTHOVIEW
 70
     0
  9
$PUCSORGTOP
 10
0.0
 20
0.0
 30
0.0
  9
$PUCSORGBOTTOM
 10
0.0
 20
0.0
 30
0.0
  9
$PUCSORGLEFT
 10
0.0
 20
0.0
 30
0.0
  9
$PUCSORGRIGHT
 10
0.0
 20
0.0
 30
0.0
  9
$PUCSORGFRONT
 10
0.0
 20
0.0
 30
0.0
  9
$PUCSORGBACK
 10
0.0
 20
0.0
 30
0.0
  9
$USERI1
 70
     0
  9
$USERI2
 70
     0
  9
$USERI3
 70
     0
  9
$USERI4
 70
     0
  9
$USERI5
 70
     0
  9
$USERR1
 40
0.0
  9
$USERR2
 40
0.0
  9
$USERR3
 40
0.0
  9
$USERR4
 40
0.0
  9
$USERR5
 40
0.0
  9
$WORLDVIEW
 70
     1
  9
$SHADEDGE
 70
     3
  9
$SHADEDIF
 70
    70
  9
$TILEMODE
 70
     1
  9
$MAXACTVP
 70
    64
  9
$PINSBASE
 10
0.0
 20
0.0
 30
0.0
  9
$PLIMCHECK
 70
     0
  9
$PEXTMIN
 10
1.000000000000000E+20
 20
1.000000000000000E+20
 30
1.000000000000000E+20
  9
$PEXTMAX
 10
-1.000000000000000E+20
 20
-1.000000000000000E+20
 30
-1.000000000000000E+20
  9
$PLIMMIN
 10
0.0
 20
0.0
  9
$PLIMMAX
 10
12.0
 20
9.0
  9
$UNITMODE
 70
     0
  9
$VISRETAIN
 70
     1
  9
$PLINEGEN
 70
     0
  9
$PSLTSCALE
 70
     1
  9
$TREEDEPTH
 70
  3020
  9
$CMLSTYLE
  2
Standard
  9
$CMLJUST
 70
     0
  9
$CMLSCALE
 40
1.0
  9
$PROXYGRAPHICS
 70
     1
  9
$MEASUREMENT
 70
     0
  9
$CELWEIGHT
370
    -1
  9
$ENDCAPS
280
     0
  9
$JOINSTYLE
280
     0
  9
$LWDISPLAY
290
     0
  9
$INSUNITS
 70
     1
  9
$HYPERLINKBASE
  1

  9
$STYLESHEET
  1

  9
$XEDIT
290
     1
  9
$CEPSNTYPE
380
     0
  9
$PSTYLEMODE
290
     1
  9
$FINGERPRINTGUID
  2
{ABE0E8C3-220E-4D98-A7CA-8B51FA7E9544}
  9
$VERSIONGUID
  2
{E0049B0E-1A9D-4E7D-887B-1B799E25D481}
  9
$EXTNAMES
290
     1
  9
$PSVPSCALE
 40
0.0
  9
$OLESTARTUP
290
     0
  0
ENDSEC
  0
SECTION
  2
CLASSES
  0
CLASS
  1
ACDBDICTIONARYWDFLT
  2
AcDbDictionaryWithDefault
  3
ObjectDBX Classes
 90
        0
280
     0
281
     0
  0
CLASS
  1
ACDBPLACEHOLDER
  2
AcDbPlaceHolder
  3
ObjectDBX Classes
 90
        0
280
     0
281
     0
  0
CLASS
  1
LAYOUT
  2
AcDbLayout
  3
ObjectDBX Classes
 90
        0
280
     0
281
     0
  0
CLASS
  1
ACME_DOCUMENT
  2
AcMeDbDoc
  3
AcMeServices
 90
     1024
280
     0
281
     0
  0
CLASS
  1
AMGSETTINGSOBJ
  2
AmgSettingsObj
  3
"AcadM|Product Description: AutoCAD Mechanical|Company: Autodesk, Inc."
 90
     1024
280
     0
281
     0
  0
CLASS
  1
ACMESCOPE
  2
AcMeScope
  3
AcMeServices
 90
     1024
280
     0
281
     0
  0
CLASS
  1
ACMECOMMANDHISTORY
  2
AcMeCommandHistory
  3
AcMeServices
 90
     1024
280
     0
281
     0
  0
CLASS
  1
ACIMSYSVARMAN
  2
AcImSysVarManager
  3
AcMeServices
 90
     1024
280
     0
281
     0
  0
CLASS
  1
ACIMREALSYSVAR
  2
AcImRealSysVar
  3
AcMeServices
 90
     1024
280
     0
281
     0
  0
CLASS
  1
ACIMINTSYSVAR
  2
AcImIntSysVar
  3
AcMeServices
 90
     1024
280
     0
281
     0
  0
CLASS
  1
ACMEDRAWINGMAN
  2
AcMeDrawingMan
  3
AcMeServices
 90
     1024
280
     0
281
     0
  0
CLASS
  1
ACMEVIEW
  2
AcMeView
  3
AcMeServices
 90
     1024
280
     0
281
     0
  0
CLASS
  1
ACDBENTITYCACHE
  2
AcMeEntityCache
  3
AcMeServices
 90
     1024
280
     0
281
     0
  0
CLASS
  1
GSMANAGER
  2
AcMeGSManager
  3
AcMeServices
 90
     1024
280
     0
281
     0
  0
CLASS
  1
AMDTINTERNALREACTOR
  2
AmdtInternalReactor
  3
AcMeServices
 90
     1024
280
     0
281
     0
  0
CLASS
  1
ACMESTATEMGR
  2
AcMeStateMgr
  3
AcMeServices
 90
     1024
280
     0
281
     0
  0
CLASS
  1
ACGREFMASTER
  2
AcGrefMaster
  3
AcAttribServices
 90
     1024
280
     0
281
     0
  0
CLASS
  1
ACME_DATABASE
  2
AcMeDbDatabase
  3
AcMeServices
 90
     1024
280
     0
281
     0
  0
CLASS
  1
ACRFINSADJUSTERMGR
  2
AcRfInsAdjusterMgr
  3
AcMeServices
 90
     1024
280
     0
281
     0
  0
CLASS
  1
ACGREFACADMASTER
  2
AcGrefacadMaster
  3
AcGrefServices
 90
     1024
280
     0
281
     0
  0
CLASS
  1
AMIMASTER
  2
AmiMaster
  3
AmiServices
 90
     1024
280
     0
281
     0
  0
CLASS
  1
ACMDATADICTIONARY
  2
AcmDataDictionary
  3
"AcmSymBB|Product Description: AutoCAD Mechanical|Company: Autodesk, Inc."
 90
     1024
280
     0
281
     0
  0
CLASS
  1
ACMDATAENTRYBLOCK
  2
AcmDataEntryBlock
  3
AcmSymBB|Product Description: AutoCAD Mechanical|Company: Autodesk, Inc.
 90
    33792
280
     0
281
     0
  0
CLASS
  1
ACIMSTRSYSVAR
  2
AcImStrSysVar
  3
AcMeServices
 90
     1024
280
     0
281
     0
  0
CLASS
  1
ACMSTANDARDANSI
  2
AcmStandardANSI
  3
"Amdt_StdImp|Product Description: AutoCAD Mechanical|Company: Autodesk, Inc."
 90
    33792
280
     0
281
     0
  0
CLASS
  1
AMGOBJPROPCFG
  2
AmgObjPropCfg
  3
"AmgLay|Product Description: AutoCAD Mechanical|Company: Autodesk, Inc."
 90
     1025
280
     0
281
     0
  0
CLASS
  1
ACMSURFSTANDARDANSI
  2
AcmSurfTextStdANSI
  3
"Amdt_StdImp|Product Description: AutoCAD Mechanical|Company: Autodesk, Inc."
 90
    33792
280
     0
281
     0
  0
CLASS
  1
ACMFCFSTANDARDANSI
  2
AcmFCFStdANSI
  3
"Amdt_StdImp|Product Description: AutoCAD Mechanical|Company: Autodesk, Inc."
 90
    33792
280
     0
281
     0
  0
CLASS
  1
ACMWELDSTANDARDANSI
  2
AcmWeldingStdANSI
  3
"Amdt_StdImp|Product Description: AutoCAD Mechanical|Company: Autodesk, Inc."
 90
    33792
280
     0
281
     0
  0
CLASS
  1
ACMIDSTANDARDANSI
  2
AcmIdStdANSI
  3
"Amdt_StdImp|Product Description: AutoCAD Mechanical|Company: Autodesk, Inc."
 90
    33792
280
     0
281
     0
  0
CLASS
  1
ACMDATUMSTANDARDANSI
  2
AcmDatumStdANSI
  3
"Amdt_StdImp|Product Description: AutoCAD Mechanical|Company: Autodesk, Inc."
 90
    33792
280
     0
281
     0
  0
CLASS
  1
ACMBOMSTANDARDANSI
  2
AcmBOMStdANSI
  3
"Amdt_StdImp|Product Description: AutoCAD Mechanical|Company: Autodesk, Inc."
 90
    33792
280
     0
281
     0
  0
CLASS
  1
ACMDETAILSTANDARDANSI
  2
AmdtDetailSymStdANSI
  3
"Amdt_StdImp|Product Description: AutoCAD Mechanical|Company: Autodesk, Inc."
 90
    33792
280
     0
281
     0
  0
CLASS
  1
ACMSECTIONSTANDARDANSI
  2
AmdtSectionSymStdANSI
  3
"Amdt_StdImp|Product Description: AutoCAD Mechanical|Company: Autodesk, Inc."
 90
    33792
280
     0
281
     0
  0
CLASS
  1
ACMCENTERLINESTANDARDANSI
  2
AmdtCenterLineStdANSI
  3
"Amdt_StdImp|Product Description: AutoCAD Mechanical|Company: Autodesk, Inc."
 90
    33792
280
     0
281
     0
  0
CLASS
  1
ACMNOTESTANDARDANSI
  2
AmdtNoteStdANSI
  3
"Amdt_StdImp|Product Description: AutoCAD Mechanical|Company: Autodesk, Inc."
 90
    33792
280
     0
281
     0
  0
CLASS
  1
ACAMGLAYSTD
  2
AcAmgLayStd
  3
"AmgLay|Product Description: AutoCAD Mechanical|Company: Autodesk, Inc."
 90
    33792
280
     0
281
     0
  0
CLASS
  1
ACAMGDIMSTD
  2
AcAmgDimStd
  3
"AmgDim|Product Description: AutoCAD Mechanical|Company: Autodesk, Inc."
 90
    33792
280
     0
281
     0
  0
CLASS
  1
ACAMGHOLECHARTSTDANSI
  2
AcAmgHoleChartStdANSI
  3
AmgDim|Product Description: AutoCAD Mechanical|Company: Autodesk, Inc.
 90
    33792
280
     0
281
     0
  0
CLASS
  1
ACAMGTITLESTD
  2
AcAmgTitleStd
  3
"AmgTitle|Product Description: AutoCAD Mechanical|Company: Autodesk, Inc."
 90
    36863
280
     0
281
     0
  0
CLASS
  1
LAYER_INDEX
  2
AcDbLayerIndex
  3
ObjectDBX Classes
 90
    32768
280
     0
281
     0
  0
CLASS
  1
IDBUFFER
  2
AcDbIdBuffer
  3
ObjectDBX Classes
 90
    32768
280
     0
281
     0
  0
CLASS
  1
DICTIONARYVAR
  2
AcDbDictionaryVar
  3
ObjectDBX Classes
 90
        0
280
     0
281
     0
  0
CLASS
  1
AM_DRAWING_MGR
  2
AcDmDwgMgr
  3
AcMechDwgViewMgmt
 90
     1024
280
     0
281
     0
  0
CLASS
  1
AM_DWG_DOCUMENT
  2
AcDmDwgDocument
  3
AcMechDwgViewMgmt
 90
     1024
280
     0
281
     0
  0
CLASS
  1
AM_DWG_SHEET
  2
AcDmSheet
  3
AcMechDwgViewMgmt
 90
     1024
280
     0
281
     0
  0
CLASS
  1
AM_VIEWDIMPARMAP
  2
AcDmViewDimParMap
  3
AcMechDwgViewMgmt
 90
     1024
280
     0
281
     0
  0
CLASS
  1
AM_DWGMGR_NAME
  2
AcDmDwgMgrName
  3
AcMechDwgViewMgmt
 90
     1024
280
     0
281
     0
  0
CLASS
  1
AMDTMENUSTATEMGR
  2
AmdtMenuStateMgr
  3
McadcomServices
 90
     1024
280
     0
281
     0
  0
CLASS
  1
AMDTMCOMMENUSTATE
  2
AmdtMcomMenuState
  3
McadcomServices
 90
     1024
280
     0
281
     0
  0
CLASS
  1
MAPIAMMOUDLE
  2
MApiAmModule
  3
MApiAmServices
 90
     1024
280
     0
281
     0
  0
CLASS
  1
AMDTADMENUSTATE
  2
AmdtAdMenuState
  3
DesignerServices
 90
     1024
280
     0
281
     0
  0
CLASS
  1
ADAPPL
  2
AcAdAppl
  3
DesignerServices
 90
     1024
280
     0
281
     0
  0
CLASS
  1
DEPMGR
  2
AcAdDepMgr
  3
DesignerServices
 90
     1024
280
     0
281
     0
  0
CLASS
  1
PARAMMGR
  2
AcAdParamMgr
  3
DesignerServices
 90
     1024
280
     0
281
     0
  0
CLASS
  1
PARAMSCOPE
  2
AcAdParamScope
  3
DesignerServices
 90
     1024
280
     0
281
     0
  0
CLASS
  1
NAMEDAPPL
  2
AcAdNamedAppl
  3
DesignerServices
 90
     1024
280
     0
281
     0
  0
CLASS
  1
AMDTDMMENUSTATE
  2
AmdtDmMenuState
  3
AcMechDwgViewMgmt
 90
     1024
280
     0
281
     0
  0
CLASS
  1
AMDTAMMENUSTATE
  2
AmdtAmMenuState
  3
DesignerAssemblies
 90
     1024
280
     0
281
     0
  0
CLASS
  1
ACAMPROJECT
  2
AcAmProject
  3
DesignerAssemblies
 90
     1024
280
     0
281
     0
  0
CLASS
  1
ACAMGRCOMPDEF
  2
AcAmGrCompDef
  3
DesignerAssemblies
 90
     1024
280
     0
281
     0
  0
CLASS
  1
ACCMCONTEXT
  2
AcCmContext
  3
DesignerAssemblies
 90
     1024
280
     0
281
     0
  0
CLASS
  1
ACAMCOMPDEF
  2
AcAmCompDef
  3
DesignerAssemblies
 90
     1024
280
     0
281
     0
  0
CLASS
  1
ACAMCOMPDEFMGR
  2
AcAmCompDefMgr
  3
DesignerAssemblies
 90
     1024
280
     0
281
     0
  0
CLASS
  1
AMCONTEXTMGR
  2
AcAmContextMgr
  3
DesignerAssemblies
 90
     1024
280
     0
281
     0
  0
CLASS
  1
ACAMCONTEXTMODELER
  2
AcAmContextModeler
  3
DesignerAssemblies
 90
     1024
280
     0
281
     0
  0
CLASS
  1
ACMTHREADLINESTANDARDANSI
  2
AmdtThreadLineStdANSI
  3
"Amdt_StdImp|Product Description: AutoCAD Mechanical|Company: Autodesk, Inc."
 90
    33792
280
     0
281
     0
  0
CLASS
  1
CATALOGSTATE
  2
AcAmCatalogState
  3
DesignerAssemblies
 90
     1024
280
     0
281
     0
  0
CLASS
  1
ACAMGRCOMPDEFSET
  2
AcAmGrCompDefSet
  3
DesignerAssemblies
 90
     1024
280
     0
281
     0
  0
CLASS
  1
AMDTBROWSERDBTAB
  2
AmdtBrowserDbTab
  3
McadcomServices
 90
     1024
280
     0
281
     0
  0
CLASS
  1
CBROWSERAPPOBJECT
  2
CBrowserAppObject
  3
McadcomServices
 90
     1024
280
     0
281
     0
  0
CLASS
  1
DM_PLACEHOLDER
  2
AcDmSelsetPlaceholder
  3
AcMechDwgViewMgmt
 90
     1024
280
     0
281
     0
  0
CLASS
  1
TABLESTYLE
  2
AcDbTableStyle
  3
ObjectDBX Classes
 90
     4095
280
     0
281
     0
  0
CLASS
  1
AMDTNOTETEMPLATEDB
  2
AmdtNoteTemplateDB
  3
AcmSymBB|Product Description: AutoCAD Mechanical|Company: Autodesk, Inc.
 90
    33792
280
     0
281
     0
  0
CLASS
  1
MATERIAL
  2
AcDbMaterial
  3
ObjectDBX Classes
 90
     1153
280
     0
281
     0
  0
CLASS
  1
VISUALSTYLE
  2
AcDbVisualStyle
  3
ObjectDBX Classes
 90
     4095
280
     0
281
     0
  0
CLASS
  1
ACRFATTGENMGR
  2
AcRfAttGeneralMgr
  3
AcAttribServices
 90
    33792
280
     0
281
     0
  0
CLASS
  1
ACRFOBJATTMGR
  2
AcRfObjAttGroupMgr
  3
AcAttribServices
 90
    33792
280
     0
281
     0
  0
CLASS
  1
ACRFMCADAPIATTHOLDER
  2
AcRfMCADAPIAttHolder
  3
AcAttribServices
 90
    33792
280
     0
281
     0
  0
CLASS
  1
AMDTSYSATTR
  2
AmdtSystemAttribute
  3
AcAttribServices
 90
    33792
280
     0
281
     0
  0
CLASS
  1
ACMTAPERSTANDARDANSI
  2
AcmTaperStdANSI
  3
"Amdt_StdImp|Product Description: AutoCAD Mechanical|Company: Autodesk, Inc."
 90
    33792
280
     0
281
     0
  0
CLASS
  1
CAMSSTRUCTBTNSTATE
  2
StructBtnState
  3
DesignerAssemblies
 90
    33792
280
     0
281
     0
  0
CLASS
  1
SCALE
  2
AcDbScale
  3
ObjectDBX Classes
 90
     1153
280
     0
281
     0
  0
CLASS
  1
MLEADERSTYLE
  2
AcDbMLeaderStyle
  3
ACDB_MLEADERSTYLE_CLASS
 90
     4095
280
     0
281
     0
  0
CLASS
  1
ACMANOOTATIONVIEWSTANDARDANSI
  2
AmdtAnViewStdANSI
  3
"Amdt_StdImp|Product Description: AutoCAD Mechanical|Company: Autodesk, Inc."
 90
    33792
280
     0
281
     0
  0
CLASS
  1
CELLSTYLEMAP
  2
AcDbCellStyleMap
  3
ObjectDBX Classes
 90
     1152
280
     0
281
     0
  0
CLASS
  1
EXACXREFPANELOBJECT
  2
ExAcXREFPanelObject
  3
EXAC_ESW
 90
     1025
280
     0
281
     0
  0
CLASS
  1
NPOCOLLECTION
  2
AcDbImpNonPersistentObjectsCollection
  3
ObjectDBX Classes
 90
     1153
280
     0
281
     0
  0
CLASS
  1
ACMSTANDARDISO
  2
AcmStandardISO
  3
"Amdt_StdImp|Product Description: AutoCAD Mechanical|Company: Autodesk, Inc."
 90
    33792
280
     0
281
     0
  0
CLASS
  1
AMDTEDGESTANDARDISO13715
  2
AmdtEdgeStdISO13715
  3
"Amdt_StdImp|Product Description: AutoCAD Mechanical|Company: Autodesk, Inc."
 90
    33792
280
     0
281
     0
  0
CLASS
  1
ACMSURFSTANDARDISO2002
  2
AcmSurfTextStdISO2002
  3
"Amdt_StdImp|Product Description: AutoCAD Mechanical|Company: Autodesk, Inc."
 90
    33792
280
     0
281
     0
  0
CLASS
  1
ACMFCFSTANDARDISO
  2
AcmFCFStdISO
  3
"Amdt_StdImp|Product Description: AutoCAD Mechanical|Company: Autodesk, Inc."
 90
    33792
280
     0
281
     0
  0
CLASS
  1
ACMWELDSTANDARDISO
  2
AcmWeldingStdISO
  3
"Amdt_StdImp|Product Description: AutoCAD Mechanical|Company: Autodesk, Inc."
 90
    33792
280
     0
281
     0
  0
CLASS
  1
ACMIDSTANDARDISO
  2
AcmIdStdISO
  3
"Amdt_StdImp|Product Description: AutoCAD Mechanical|Company: Autodesk, Inc."
 90
    33792
280
     0
281
     0
  0
CLASS
  1
ACMDATUMSTANDARDISO
  2
AcmDatumStdISO
  3
"Amdt_StdImp|Product Description: AutoCAD Mechanical|Company: Autodesk, Inc."
 90
    33792
280
     0
281
     0
  0
CLASS
  1
ACMBOMSTANDARDISO
  2
AcmBOMStdISO
  3
"Amdt_StdImp|Product Description: AutoCAD Mechanical|Company: Autodesk, Inc."
 90
    33792
280
     0
281
     0
  0
CLASS
  1
ACMDETAILSTANDARDISO
  2
AmdtDetailSymStdISO
  3
"Amdt_StdImp|Product Description: AutoCAD Mechanical|Company: Autodesk, Inc."
 90
    33792
280
     0
281
     0
  0
CLASS
  1
ACMSECTIONSTANDARDISO2001
  2
AmdtSectionSymStdISO2001
  3
"Amdt_StdImp|Product Description: AutoCAD Mechanical|Company: Autodesk, Inc."
 90
    33792
280
     0
281
     0
  0
CLASS
  1
ACMCENTERLINESTANDARDISO
  2
AmdtCenterLineStdISO
  3
"Amdt_StdImp|Product Description: AutoCAD Mechanical|Company: Autodesk, Inc."
 90
    33792
280
     0
281
     0
  0
CLASS
  1
ACMTHREADLINESTANDARDISO
  2
AmdtThreadLineStdISO
  3
"Amdt_StdImp|Product Description: AutoCAD Mechanical|Company: Autodesk, Inc."
 90
    33792
280
     0
281
     0
  0
CLASS
  1
ACMNOTESTANDARDISO
  2
AmdtNoteStdISO
  3
"Amdt_StdImp|Product Description: AutoCAD Mechanical|Company: Autodesk, Inc."
 90
    33792
280
     0
281
     0
  0
CLASS
  1
ACMTAPERSTANDARDISO
  2
AcmTaperStdISO
  3
"Amdt_StdImp|Product Description: AutoCAD Mechanical|Company: Autodesk, Inc."
 90
    33792
280
     0
281
     0
  0
CLASS
  1
ACMANOOTATIONVIEWSTANDARDISO
  2
AmdtAnViewStdISO
  3
"Amdt_StdImp|Product Description: AutoCAD Mechanical|Company: Autodesk, Inc."
 90
    33792
280
     0
281
     0
  0
CLASS
  1
ACAMGHOLECHARTSTDISO
  2
AcAmgHoleChartStdISO
  3
AmgDim|Product Description: AutoCAD Mechanical|Company: Autodesk, Inc.
 90
    33792
280
     0
281
     0
  0
CLASS
  1
ACAMGFILTERDAT
  2
AcAmgFilterDat
  3
"AcadM|Product Description: AutoCAD Mechanical|Company: Autodesk, Inc."
 90
    33792
280
     0
281
     0
  0
ENDSEC
  0
SECTION
  2
TABLES
  0
TABLE
  2
VPORT
  5
8
330
0
100
AcDbSymbolTable
 70
     1
  0
VPORT
  5
291
330
8
100
AcDbSymbolTableRecord
100
AcDbViewportTableRecord
  2
*Active
 70
     0
 10
0.0
 20
0.0
 11
1.0
 21
1.0
 12
229.4981104300325
 22
116.443108292719
 13
0.0
 23
0.0
 14
0.125
 24
0.125
 15
1.0
 25
1.0
 16
0.0
 26
0.0
 36
1.0
 17
0.0
 27
0.0
 37
0.0
 40
476.8929578650993
 41
1.442643391521196
 42
50.0
 43
0.0
 44
0.0
 50
0.0
 51
0.0
 71
     0
 72
   100
 73
     1
 74
     3
 75
     0
 76
     0
 77
     0
 78
     0
281
     0
 65
     0
110
0.0
120
0.0
130
0.0
111
1.0
121
0.0
131
0.0
112
0.0
122
1.0
132
0.0
 79
     0
146
0.0
  0
ENDTAB
  0
TABLE
  2
LTYPE
  5
5
330
0
100
AcDbSymbolTable
 70
    20
  0
LTYPE
  5
14
330
5
100
AcDbSymbolTableRecord
100
AcDbLinetypeTableRecord
  2
ByBlock
 70
     0
  3

 72
    65
 73
     0
 40
0.0
  0
LTYPE
  5
15
330
5
100
AcDbSymbolTableRecord
100
AcDbLinetypeTableRecord
  2
ByLayer
 70
     0
  3

 72
    65
 73
     0
 40
0.0
  0
LTYPE
  5
16
330
5
100
AcDbSymbolTableRecord
100
AcDbLinetypeTableRecord
  2
Continuous
 70
     0
  3
Solid line
 72
    65
 73
     0
 40
0.0
  0
LTYPE
  5
6C
330
5
100
AcDbSymbolTableRecord
100
AcDbLinetypeTableRecord
  2
AM_ISO02W050
 70
     0
  3
__ __ __ __ __ __ __ __ __ __ __ __ __ __ __
 72
    65
 73
     2
 40
7.5
 49
6.0
 74
     0
 49
-1.5
 74
     0
  0
LTYPE
  5
6D
330
5
100
AcDbSymbolTableRecord
100
AcDbLinetypeTableRecord
  2
AM_ISO08W050
 70
     0
  3
____ . ____ . ____ . ____ . ____ . ____ . ____
 72
    65
 73
     4
 40
18.0
 49
12.0
 74
     0
 49
-1.5
 74
     0
 49
3.0
 74
     0
 49
-1.5
 74
     0
  0
LTYPE
  5
6E
330
5
100
AcDbSymbolTableRecord
100
AcDbLinetypeTableRecord
  2
AM_ISO09W050
 70
     0
  3
_____ . . _____ . . _____ . . ____ .. ____
 72
    65
 73
     6
 40
22.5
 49
12.0
 74
     0
 49
-1.5
 74
     0
 49
3.0
 74
     0
 49
-1.5
 74
     0
 49
3.0
 74
     0
 49
-1.5
 74
     0
  0
LTYPE
  5
6F
330
5
100
AcDbSymbolTableRecord
100
AcDbLinetypeTableRecord
  2
Amconstr
 70
     0
  3
_______________________
 72
    65
 73
     2
 40
9999.0
 49
9999.0
 74
     0
 49
0.0
 74
     0
  0
LTYPE
  5
70
330
5
100
AcDbSymbolTableRecord
100
AcDbLinetypeTableRecord
  2
AM_ISO08W050x2
 70
     0
  3
__ . __ . __ . __ . __ . __
 72
    65
 73
     4
 40
9.0
 49
6.0
 74
     0
 49
-0.75
 74
     0
 49
1.5
 74
     0
 49
-0.75
 74
     0
  0
LTYPE
  5
71
330
5
100
AcDbSymbolTableRecord
100
AcDbLinetypeTableRecord
  2
AM_ISO02W050x2
 70
     0
  3
 _ _ _ _ _ _ _ _ _ _ _ _
 72
    65
 73
     2
 40
3.75
 49
3.0
 74
     0
 49
-0.75
 74
     0
  0
LTYPE
  5
74
330
5
100
AcDbSymbolTableRecord
100
AcDbLinetypeTableRecord
  2
Amzigzag
 70
     0
  3
/\/-/\/-/\/-/\/-/\/-/\/
 72
    65
 73
     2
 40
11.0001
 49
0.0001
 74
     4
 75
   136
340
254
 46
0.04
 50
0.0
 44
0.0
 45
0.0
 49
-11.0
 74
     0
  0
LTYPE
  5
75
330
5
100
AcDbSymbolTableRecord
100
AcDbLinetypeTableRecord
  2
HIDDEN
 70
     0
  3
Hidden __ __ __ __ __ __ __ __ __ __ __ __ __ _
 72
    65
 73
     2
 40
0.375
 49
0.25
 74
     0
 49
-0.125
 74
     0
  0
LTYPE
  5
76
330
5
100
AcDbSymbolTableRecord
100
AcDbLinetypeTableRecord
  2
CENTER
 70
     0
  3
Center ____ _ ____ _ ____ _ ____ _ ____ _ ____
 72
    65
 73
     4
 40
2.0
 49
1.25
 74
     0
 49
-0.25
 74
     0
 49
0.25
 74
     0
 49
-0.25
 74
     0
  0
LTYPE
  5
77
330
5
100
AcDbSymbolTableRecord
100
AcDbLinetypeTableRecord
  2
PHANTOM2
 70
     0
  3
Phantom (.5x) ___ _ _ ___ _ _ ___ _ _ ___ _ _
 72
    65
 73
     6
 40
1.25
 49
0.625
 74
     0
 49
-0.125
 74
     0
 49
0.125
 74
     0
 49
-0.125
 74
     0
 49
0.125
 74
     0
 49
-0.125
 74
     0
  0
LTYPE
  5
78
330
5
100
AcDbSymbolTableRecord
100
AcDbLinetypeTableRecord
  2
CENTER2
 70
     0
  3
Center (.5x) ___ _ ___ _ ___ _ ___ _ ___ _ ___
 72
    65
 73
     4
 40
1.125
 49
0.75
 74
     0
 49
-0.125
 74
     0
 49
0.125
 74
     0
 49
-0.125
 74
     0
  0
LTYPE
  5
79
330
5
100
AcDbSymbolTableRecord
100
AcDbLinetypeTableRecord
  2
HIDDEN2
 70
     0
  3
Hidden (.5x) _ _ _ _ _ _ _ _ _ _ _ _ _ _ _ _ _
 72
    65
 73
     2
 40
0.1875
 49
0.125
 74
     0
 49
-0.0625
 74
     0
  0
LTYPE
  5
7A
330
5
100
AcDbSymbolTableRecord
100
AcDbLinetypeTableRecord
  2
Amzigzag2
 70
     0
  3
/\/-/\/-/\/-/\/-/\/-/\/
 72
    65
 73
     2
 40
0.4401
 49
0.0001
 74
     4
 75
   136
340
254
 46
0.0016
 50
0.0
 44
0.0
 45
0.0
 49
-0.4400000000000002
 74
     0
  0
LTYPE
  5
87
330
5
100
AcDbSymbolTableRecord
100
AcDbLinetypeTableRecord
  2
ACANSTGB
 70
     0
  3
__ . . __ . .
 72
    65
 73
     6
 40
0.35433070866
 49
0.15748031496
 74
     0
 49
-0.03937007874
 74
     0
 49
0.03937007874
 74
     0
 49
-0.03937007874
 74
     0
 49
0.03937007874
 74
     0
 49
-0.03937007874
 74
     0
  0
LTYPE
  5
88
330
5
100
AcDbSymbolTableRecord
100
AcDbLinetypeTableRecord
  2
ACANSTGL
 70
     0
  3
_ _ _ _ _
 72
    65
 73
     2
 40
0.11811023622
 49
0.07874015748
 74
     0
 49
-0.03937007874
 74
     0
  0
LTYPE
  5
38C
330
5
100
AcDbSymbolTableRecord
100
AcDbLinetypeTableRecord
  2
ACISOWELD
 70
     0
  3
_ _ _ _ _
 72
    65
 73
     2
 40
2.0
 49
2.0
 74
     0
 49
-1.0
 74
     0
  0
LTYPE
  5
38D
330
5
100
AcDbSymbolTableRecord
100
AcDbLinetypeTableRecord
  2
ACISOTGB
 70
     0
  3
__ . . __ . .
 72
    65
 73
     6
 40
9.0
 49
4.0
 74
     0
 49
-1.0
 74
     0
 49
1.0
 74
     0
 49
-1.0
 74
     0
 49
1.0
 74
     0
 49
-1.0
 74
     0
  0
LTYPE
  5
38E
330
5
100
AcDbSymbolTableRecord
100
AcDbLinetypeTableRecord
  2
ACISOTGL
 70
     0
  3
_ _ _ _ _
 72
    65
 73
     2
 40
3.0
 49
2.0
 74
     0
 49
-1.0
 74
     0
  0
ENDTAB
  0
TABLE
  2
LAYER
  5
2
330
0
100
AcDbSymbolTable
 70
     3
  0
LAYER
  5
10
102
{ACAD_XDICTIONARY
360
1039
102
}
330
2
100
AcDbSymbolTableRecord
100
AcDbLayerTableRecord
  2
0
 70
     0
 62
     7
  6
Continuous
370
    -3
390
F
  0
LAYER
  5
38F
102
{ACAD_XDICTIONARY
360
103B
102
}
330
2
100
AcDbSymbolTableRecord
100
AcDbLayerTableRecord
  2
02___PRT_ALL_AXES
 70
     0
 62
     7
  6
Continuous
370
    -3
390
F
  0
LAYER
  5
390
102
{ACAD_XDICTIONARY
360
103D
102
}
330
2
100
AcDbSymbolTableRecord
100
AcDbLayerTableRecord
  2
06___PRT_ALL_SURFS
 70
     0
 62
     7
  6
Continuous
370
    -3
390
F
  0
ENDTAB
  0
TABLE
  2
STYLE
  5
3
330
0
100
AcDbSymbolTable
 70
     9
  0
STYLE
  5
11
330
3
100
AcDbSymbolTableRecord
100
AcDbTextStyleTableRecord
  2
STANDARD
 70
     0
 40
0.0
 41
1.0
 50
0.0
 71
     0
 42
0.2
  3
ROMANS.SHX
  4

  0
STYLE
  5
73
330
3
100
AcDbSymbolTableRecord
100
AcDbTextStyleTableRecord
  2

 70
     1
 40
0.0
 41
1.0
 50
0.0
 71
     0
 42
0.2
  3
ltypeshp.shx
  4

  0
STYLE
  5
7B
330
3
100
AcDbSymbolTableRecord
100
AcDbTextStyleTableRecord
  2
ACANSTS
 70
     0
 40
1.0
 41
1.0
 50
0.0
 71
     0
 42
0.2
  3
romans.shx
  4

  0
STYLE
  5
86
330
3
100
AcDbSymbolTableRecord
100
AcDbTextStyleTableRecord
  2
ACANSGDT
 70
     0
 40
0.0
 41
1.0
 50
0.0
 71
     0
 42
0.2
  3
amgdt.shx
  4

  0
STYLE
  5
13F
330
3
100
AcDbSymbolTableRecord
100
AcDbTextStyleTableRecord
  2
USER1
 70
     0
 40
0.0
 41
1.0
 50
0.0
 71
     0
 42
0.2
  3
TXT.SHX
  4

  0
STYLE
  5
140
330
3
100
AcDbSymbolTableRecord
100
AcDbTextStyleTableRecord
  2
USER2
 70
     0
 40
0.0
 41
1.0
 50
0.0
 71
     0
 42
0.2
  3
SIMPLEX.SHX
  4

  0
STYLE
  5
141
330
3
100
AcDbSymbolTableRecord
100
AcDbTextStyleTableRecord
  2
USER3
 70
     0
 40
0.0
 41
1.0
 50
0.0
 71
     0
 42
0.2
  3
ITALIC.SHX
  4

  0
STYLE
  5
254
330
3
100
AcDbSymbolTableRecord
100
AcDbTextStyleTableRecord
  2

 70
     1
 40
0.0
 41
1.0
 50
0.0
 71
     0
 42
0.2
  3
genltshp.shx
  4

  0
STYLE
  5
391
330
3
100
AcDbSymbolTableRecord
100
AcDbTextStyleTableRecord
  2
ACISOGDT
 70
     0
 40
0.0
 41
1.0
 50
0.0
 71
     0
 42
0.2
  3
amgdt.shx
  4

  0
ENDTAB
  0
TABLE
  2
VIEW
  5
6
330
0
100
AcDbSymbolTable
 70
     0
  0
ENDTAB
  0
TABLE
  2
UCS
  5
7
330
0
100
AcDbSymbolTable
 70
     0
  0
ENDTAB
  0
TABLE
  2
APPID
  5
9
330
0
100
AcDbSymbolTable
 70
    14
  0
APPID
  5
12
330
9
100
AcDbSymbolTableRecord
100
AcDbRegAppTableRecord
  2
ACAD
 70
     0
  0
APPID
  5
4E
330
9
100
AcDbSymbolTableRecord
100
AcDbRegAppTableRecord
  2
MCAD_NO_VIS
 70
     0
  0
APPID
  5
4F
330
9
100
AcDbSymbolTableRecord
100
AcDbRegAppTableRecord
  2
ACAD_TEMP_GRAPHIC
 70
     0
  0
APPID
  5
60
330
9
100
AcDbSymbolTableRecord
100
AcDbRegAppTableRecord
  2
ACATTRIBSERVICES
 70
     0
  0
APPID
  5
F7
330
9
100
AcDbSymbolTableRecord
100
AcDbRegAppTableRecord
  2
AD_DRAW
 70
     0
  0
APPID
  5
115
330
9
100
AcDbSymbolTableRecord
100
AcDbRegAppTableRecord
  2
DESIGNERASSEMBLIES
 70
     0
  0
APPID
  5
11A
330
9
100
AcDbSymbolTableRecord
100
AcDbRegAppTableRecord
  2
ACADM_DIM_EDIT
 70
     0
  0
APPID
  5
11B
330
9
100
AcDbSymbolTableRecord
100
AcDbRegAppTableRecord
  2
AMDT_DM_ADJ
 70
     0
  0
APPID
  5
1D3
330
9
100
AcDbSymbolTableRecord
100
AcDbRegAppTableRecord
  2
ACAD_DSTYLE_DIMARC_LENGTH_SYMBOL
 70
     0
  0
APPID
  5
1D4
330
9
100
AcDbSymbolTableRecord
100
AcDbRegAppTableRecord
  2
ACAD_DSTYLE_DIMJOGGED_JOGANGLE_SYMBOL
 70
     0
  0
APPID
  5
2EE
330
9
100
AcDbSymbolTableRecord
100
AcDbRegAppTableRecord
  2
ACAD_MLEADERVER
 70
     0
  0
APPID
  5
104D
330
9
100
AcDbSymbolTableRecord
100
AcDbRegAppTableRecord
  2
ACAD_DSTYLE_DIM_LINETYPE
 70
     0
  0
APPID
  5
104E
330
9
100
AcDbSymbolTableRecord
100
AcDbRegAppTableRecord
  2
ACAD_DSTYLE_DIM_EXT1_LINETYPE
 70
     0
  0
APPID
  5
104F
330
9
100
AcDbSymbolTableRecord
100
AcDbRegAppTableRecord
  2
ACAD_DSTYLE_DIM_EXT2_LINETYPE
 70
     0
  0
ENDTAB
  0
TABLE
  2
DIMSTYLE
  5
A
330
0
100
AcDbSymbolTable
 70
    15
100
AcDbDimStyleTable
 71
     1
340
8C
  0
DIMSTYLE
105
27
330
A
100
AcDbSymbolTableRecord
100
AcDbDimStyleTableRecord
  2
Standard
 70
     0
340
11
  0
DIMSTYLE
105
8C
330
A
100
AcDbSymbolTableRecord
100
AcDbDimStyleTableRecord
  2
AM_ANSI
 70
     0
  4
mm
 41
0.12
 42
0.05
 43
0.5
 44
0.1
 47
0.1
 48
0.1
 78
     7
 79
     2
140
0.12
141
0.0
146
0.71
147
0.06
176
   256
177
   256
178
   140
274
     4
284
     7
340
11
371
    -1
372
    -1
1001
ACAD_DSTYLE_DIMJOGGED_JOGANGLE_SYMBOL
1070
   384
1040
0.7853981633974483
1001
ACAD_DSTYLE_DIMARC_LENGTH_SYMBOL
1070
   379
1070
     1
1001
ACAD_DSTYLE_DIM_LINETYPE
1070
   380
1005
14
1001
ACAD_DSTYLE_DIM_EXT1_LINETYPE
1070
   381
1005
14
1001
ACAD_DSTYLE_DIM_EXT2_LINETYPE
1070
   382
1005
14
  0
DIMSTYLE
105
8D
330
A
100
AcDbSymbolTableRecord
100
AcDbDimStyleTableRecord
  2
AM_ANSI$3
 70
     0
  4
mm
 41
0.12
 42
0.05
 43
0.5
 44
0.1
 47
0.1
 48
0.1
 78
     7
 79
     2
140
0.12
141
0.0
146
0.71
147
0.06
176
   256
177
   256
178
   140
274
     4
284
     7
288
     1
289
     0
340
11
371
    -1
372
    -1
1001
ACAD_DSTYLE_DIMJOGGED_JOGANGLE_SYMBOL
1070
   384
1040
0.7853981633974483
1001
ACAD_DSTYLE_DIMARC_LENGTH_SYMBOL
1070
   379
1070
     1
1001
ACAD_DSTYLE_DIM_LINETYPE
1070
   380
1005
14
1001
ACAD_DSTYLE_DIM_EXT1_LINETYPE
1070
   381
1005
14
1001
ACAD_DSTYLE_DIM_EXT2_LINETYPE
1070
   382
1005
14
  0
DIMSTYLE
105
8E
330
A
100
AcDbSymbolTableRecord
100
AcDbDimStyleTableRecord
  2
AM_ANSI$4
 70
     0
  4
mm
 41
0.12
 42
0.05
 43
0.5
 44
0.1
 47
0.1
 48
0.1
 78
     7
 79
     2
140
0.12
141
0.0
146
0.71
147
0.06
176
   256
177
   256
178
   140
274
     4
284
     7
340
11
371
    -1
372
    -1
1001
ACAD_DSTYLE_DIMJOGGED_JOGANGLE_SYMBOL
1070
   384
1040
0.7853981633974483
1001
ACAD_DSTYLE_DIMARC_LENGTH_SYMBOL
1070
   379
1070
     1
1001
ACAD_DSTYLE_DIM_LINETYPE
1070
   380
1005
14
1001
ACAD_DSTYLE_DIM_EXT1_LINETYPE
1070
   381
1005
14
1001
ACAD_DSTYLE_DIM_EXT2_LINETYPE
1070
   382
1005
14
  0
DIMSTYLE
105
8F
330
A
100
AcDbSymbolTableRecord
100
AcDbDimStyleTableRecord
  2
AM_ANSI$7
 70
     0
  4
mm
 41
0.12
 42
0.05
 43
0.5
 44
0.1
 47
0.1
 48
0.1
 78
     7
 79
     2
140
0.12
141
0.0
146
0.71
147
0.06
176
   256
177
   256
178
   140
274
     4
284
     7
340
11
371
    -1
372
    -1
1001
ACAD_DSTYLE_DIMJOGGED_JOGANGLE_SYMBOL
1070
   384
1040
0.7853981633974483
1001
ACAD_DSTYLE_DIMARC_LENGTH_SYMBOL
1070
   379
1070
     1
1001
ACAD_DSTYLE_DIM_LINETYPE
1070
   380
1005
14
1001
ACAD_DSTYLE_DIM_EXT1_LINETYPE
1070
   381
1005
14
1001
ACAD_DSTYLE_DIM_EXT2_LINETYPE
1070
   382
1005
14
  0
DIMSTYLE
105
90
330
A
100
AcDbSymbolTableRecord
100
AcDbDimStyleTableRecord
  2
AM_ANSI$SF
 70
     0
  4
mm
 41
0.12
 42
0.05
 43
0.5
 44
0.1
 47
0.1
 48
0.1
 75
     1
 76
     1
 78
     7
 79
     2
140
0.12
141
0.0
146
0.71
147
0.06
176
   256
177
   256
178
   140
274
     4
284
     7
340
11
371
    -1
372
    -1
1001
ACAD_DSTYLE_DIMJOGGED_JOGANGLE_SYMBOL
1070
   384
1040
0.7853981633974483
1001
ACAD_DSTYLE_DIMARC_LENGTH_SYMBOL
1070
   379
1070
     1
1001
ACAD_DSTYLE_DIM_LINETYPE
1070
   380
1005
14
1001
ACAD_DSTYLE_DIM_EXT1_LINETYPE
1070
   381
1005
14
1001
ACAD_DSTYLE_DIM_EXT2_LINETYPE
1070
   382
1005
14
  0
DIMSTYLE
105
95
330
A
100
AcDbSymbolTableRecord
100
AcDbDimStyleTableRecord
  2
AM_ANSI$SH
 70
     0
  4
mm
 41
0.12
 42
0.05
 43
0.5
 44
0.1
 47
0.1
 48
0.1
 75
     1
 76
     1
 78
     7
 79
     2
140
0.12
141
0.0
146
0.71
147
0.06
173
     1
176
   256
177
   256
178
   140
274
     4
284
     7
340
11
343
91
371
    -1
372
    -1
1001
ACAD_DSTYLE_DIMJOGGED_JOGANGLE_SYMBOL
1070
   384
1040
0.7853981633974483
1001
ACAD_DSTYLE_DIMARC_LENGTH_SYMBOL
1070
   379
1070
     1
1001
ACAD_DSTYLE_DIM_LINETYPE
1070
   380
1005
14
1001
ACAD_DSTYLE_DIM_EXT1_LINETYPE
1070
   381
1005
14
1001
ACAD_DSTYLE_DIM_EXT2_LINETYPE
1070
   382
1005
14
  0
DIMSTYLE
105
392
330
A
100
AcDbSymbolTableRecord
100
AcDbDimStyleTableRecord
  2
AM_ISO
 70
     0
  4
"
 41
3.5
 42
1.0
 43
10.0
 44
1.0
 47
0.1
 48
0.1
 73
     0
 74
     0
 77
     1
 78
     8
 79
     2
140
3.5
141
0.0
143
0.0393701
146
0.71
147
1.5
172
     1
176
   256
177
   256
178
   140
271
     2
272
     3
274
     4
283
     0
284
     8
340
11
371
    -1
372
    -1
1001
ACAD_DSTYLE_DIMARC_LENGTH_SYMBOL
1070
   379
1070
     1
1001
ACAD_DSTYLE_DIM_LINETYPE
1070
   380
1005
14
1001
ACAD_DSTYLE_DIM_EXT1_LINETYPE
1070
   381
1005
14
1001
ACAD_DSTYLE_DIM_EXT2_LINETYPE
1070
   382
1005
14
  0
DIMSTYLE
105
393
330
A
100
AcDbSymbolTableRecord
100
AcDbDimStyleTableRecord
  2
AM_ISO$3
 70
     0
  4
"
 41
3.5
 42
1.0
 43
10.0
 44
1.0
 47
0.1
 48
0.1
 73
     0
 77
     1
 78
     8
 79
     2
140
3.5
141
0.0
143
0.0393701
146
0.71
147
1.5
176
   256
177
   256
178
   140
271
     2
272
     3
274
     4
283
     0
284
     8
288
     1
289
     0
340
11
371
    -1
372
    -1
1001
ACAD_DSTYLE_DIMARC_LENGTH_SYMBOL
1070
   379
1070
     1
1001
ACAD_DSTYLE_DIM_LINETYPE
1070
   380
1005
14
1001
ACAD_DSTYLE_DIM_EXT1_LINETYPE
1070
   381
1005
14
1001
ACAD_DSTYLE_DIM_EXT2_LINETYPE
1070
   382
1005
14
  0
DIMSTYLE
105
394
330
A
100
AcDbSymbolTableRecord
100
AcDbDimStyleTableRecord
  2
AM_ISO$4
 70
     0
  4
"
 41
3.5
 42
1.0
 43
10.0
 44
1.0
 47
0.1
 48
0.1
 73
     0
 74
     0
 77
     1
 78
     8
 79
     2
140
3.5
141
0.0
143
0.0393701
146
0.71
147
1.5
172
     1
176
   256
177
   256
178
   140
271
     2
272
     3
274
     4
283
     0
284
     8
340
11
371
    -1
372
    -1
1001
ACAD_DSTYLE_DIMARC_LENGTH_SYMBOL
1070
   379
1070
     1
1001
ACAD_DSTYLE_DIM_LINETYPE
1070
   380
1005
14
1001
ACAD_DSTYLE_DIM_EXT1_LINETYPE
1070
   381
1005
14
1001
ACAD_DSTYLE_DIM_EXT2_LINETYPE
1070
   382
1005
14
  0
DIMSTYLE
105
395
330
A
100
AcDbSymbolTableRecord
100
AcDbDimStyleTableRecord
  2
AM_ISO$6
 70
     0
  4
"
 41
3.5
 42
1.0
 43
10.0
 44
1.0
 47
0.1
 48
0.1
 73
     0
 74
     0
 78
     8
 79
     2
140
3.5
141
0.0
143
0.0393701
146
0.71
147
1.5
172
     1
176
   256
177
   256
178
   140
271
     2
272
     3
274
     4
283
     0
284
     8
340
11
371
    -1
372
    -1
1001
ACAD_DSTYLE_DIMARC_LENGTH_SYMBOL
1070
   379
1070
     1
1001
ACAD_DSTYLE_DIM_LINETYPE
1070
   380
1005
14
1001
ACAD_DSTYLE_DIM_EXT1_LINETYPE
1070
   381
1005
14
1001
ACAD_DSTYLE_DIM_EXT2_LINETYPE
1070
   382
1005
14
  0
DIMSTYLE
105
396
330
A
100
AcDbSymbolTableRecord
100
AcDbDimStyleTableRecord
  2
AM_ISO$7
 70
     0
  4
"
 41
3.5
 42
1.0
 43
10.0
 44
1.0
 47
0.1
 48
0.1
 73
     0
 74
     0
 77
     1
 78
     8
 79
     2
140
3.5
141
0.0
143
0.0393701
146
0.71
147
1.5
172
     1
176
   256
177
   256
178
   140
271
     2
272
     3
274
     4
283
     0
284
     8
340
11
371
    -1
372
    -1
1001
ACAD_DSTYLE_DIMARC_LENGTH_SYMBOL
1070
   379
1070
     1
1001
ACAD_DSTYLE_DIM_LINETYPE
1070
   380
1005
14
1001
ACAD_DSTYLE_DIM_EXT1_LINETYPE
1070
   381
1005
14
1001
ACAD_DSTYLE_DIM_EXT2_LINETYPE
1070
   382
1005
14
  0
DIMSTYLE
105
397
330
A
100
AcDbSymbolTableRecord
100
AcDbDimStyleTableRecord
  2
AM_ISO$SF
 70
     0
  4
"
 41
3.5
 42
1.0
 43
10.0
 44
1.0
 47
0.1
 48
0.1
 73
     0
 74
     0
 75
     1
 76
     1
 77
     1
 78
     8
 79
     2
140
3.5
141
0.0
143
0.0393701
146
0.71
147
1.5
172
     1
176
   256
177
   256
178
   140
271
     2
272
     3
274
     4
283
     0
284
     8
340
11
371
    -1
372
    -1
1001
ACAD_DSTYLE_DIMARC_LENGTH_SYMBOL
1070
   379
1070
     1
1001
ACAD_DSTYLE_DIM_LINETYPE
1070
   380
1005
14
1001
ACAD_DSTYLE_DIM_EXT1_LINETYPE
1070
   381
1005
14
1001
ACAD_DSTYLE_DIM_EXT2_LINETYPE
1070
   382
1005
14
  0
DIMSTYLE
105
398
330
A
100
AcDbSymbolTableRecord
100
AcDbDimStyleTableRecord
  2
AM_ISO$SH
 70
     0
  4
"
 41
3.5
 42
1.0
 43
10.0
 44
1.0
 47
0.1
 48
0.1
 73
     0
 74
     0
 75
     1
 76
     1
 77
     1
 78
     8
 79
     2
140
3.5
141
0.0
143
0.0393701
144
2.0
146
0.71
147
1.5
172
     1
173
     1
176
   256
177
   256
178
   140
271
     2
272
     3
274
     4
283
     0
284
     8
340
11
343
91
371
    -1
372
    -1
1001
ACAD_DSTYLE_DIMARC_LENGTH_SYMBOL
1070
   379
1070
     1
1001
ACAD_DSTYLE_DIM_LINETYPE
1070
   380
1005
14
1001
ACAD_DSTYLE_DIM_EXT1_LINETYPE
1070
   381
1005
14
1001
ACAD_DSTYLE_DIM_EXT2_LINETYPE
1070
   382
1005
14
  0
ENDTAB
  0
TABLE
  2
BLOCK_RECORD
  5
1
330
0
100
AcDbSymbolTable
 70
     4
  0
BLOCK_RECORD
  5
1F
102
{ACAD_XDICTIONARY
360
99
102
}
330
1
100
AcDbSymbolTableRecord
100
AcDbBlockTableRecord
  2
*Model_Space
340
22
  0
BLOCK_RECORD
  5
1B
330
1
100
AcDbSymbolTableRecord
100
AcDbBlockTableRecord
  2
*Paper_Space
340
1E
  0
BLOCK_RECORD
  5
23
330
1
100
AcDbSymbolTableRecord
100
AcDbBlockTableRecord
  2
*Paper_Space0
340
26
  0
BLOCK_RECORD
  5
91
330
1
100
AcDbSymbolTableRecord
100
AcDbBlockTableRecord
  2
GENAXEH
340
0
  0
ENDTAB
  0
ENDSEC
  0
SECTION
  2
BLOCKS
  0
BLOCK
  5
20
330
1F
100
AcDbEntity
  8
0
100
AcDbBlockBegin
  2
*Model_Space
 70
     0
 10
0.0
 20
0.0
 30
0.0
  3
*Model_Space
  1

  0
ENDBLK
  5
21
330
1F
100
AcDbEntity
  8
0
100
AcDbBlockEnd
  0
BLOCK
  5
1C
330
1B
100
AcDbEntity
 67
     1
  8
0
100
AcDbBlockBegin
  2
*Paper_Space
 70
     0
 10
0.0
 20
0.0
 30
0.0
  3
*Paper_Space
  1

  0
ENDBLK
  5
1D
330
1B
100
AcDbEntity
 67
     1
  8
0
100
AcDbBlockEnd
  0
BLOCK
  5
24
330
23
100
AcDbEntity
 67
     1
  8
0
100
AcDbBlockBegin
  2
*Paper_Space0
 70
     0
 10
0.0
 20
0.0
 30
0.0
  3
*Paper_Space0
  1

  0
ENDBLK
  5
25
330
23
100
AcDbEntity
 67
     1
  8
0
100
AcDbBlockEnd
  0
BLOCK
  5
93
330
91
100
AcDbEntity
  8
0
100
AcDbBlockBegin
  2
GENAXEH
 70
     0
 10
0.0
 20
0.0
 30
0.0
  3
GENAXEH
  1

  0
LINE
  5
92
330
91
100
AcDbEntity
  8
0
100
AcDbLine
 10
-1.0
 20
0.0
 30
0.0
 11
1.0
 21
0.0
 31
0.0
  0
ENDBLK
  5
94
330
91
100
AcDbEntity
  8
0
100
AcDbBlockEnd
  0
ENDSEC
  0
SECTION
  2
ENTITIES
  0
LINE
  5
9FB
330
1F
100
AcDbEntity
  8
0
  6
Continuous
 62
     7
100
AcDbLine
 10
16.02962490884695
 20
179.8137001898397
 30
0.0
 11
17.79274008144696
 21
108.1128695215398
 31
0.0
  0
LINE
  5
9FC
330
1F
100
AcDbEntity
  8
0
  6
Continuous
 62
     7
100
AcDbLine
 10
19.32962490884694
 20
108.1128695215398
 30
0.0
 11
19.32962490884694
 21
106.6128695215398
 31
0.0
  0
LINE
  5
9FF
330
1F
100
AcDbEntity
  8
0
  6
Continuous
 62
     7
100
AcDbLine
 10
66.02962490884696
 20
106.6128695215398
 30
0.0
 11
66.02962490884696
 21
108.1128695215398
 31
0.0
  0
LINE
  5
A00
330
1F
100
AcDbEntity
  8
0
  6
Continuous
 62
     7
100
AcDbLine
 10
74.67774535864696
 20
86.41398889743982
 30
0.0
 11
74.67775787354695
 21
86.41385074843972
 31
0.0
  0
LINE
  5
A01
330
1F
100
AcDbEntity
  8
0
  6
Continuous
 62
     7
100
AcDbLine
 10
74.67775787354695
 20
86.41385074843972
 30
0.0
 11
74.67732509694696
 21
86.42436164373975
 31
0.0
  0
LINE
  5
A02
330
1F
100
AcDbEntity
  8
0
  6
Continuous
 62
     7
100
AcDbLine
 10
72.35567672344695
 20
96.48480921703985
 30
0.0
 11
72.35553639764697
 21
96.4724970461398
 31
0.0
  0
LINE
  5
A03
330
1F
100
AcDbEntity
  8
0
  6
Continuous
 62
     7
100
AcDbLine
 10
72.35480763644694
 20
96.48893085053977
 30
0.0
 11
72.35482583764696
 21
96.48941242093977
 31
0.0
  0
LINE
  5
A04
330
1F
100
AcDbEntity
  8
0
  6
Continuous
 62
     7
100
AcDbLine
 10
74.95564760944697
 20
85.76824211243978
 30
0.0
 11
75.15070821444695
 21
85.46523014033985
 31
0.0
  0
LINE
  5
A05
330
1F
100
AcDbEntity
  8
0
  6
Continuous
 62
     7
100
AcDbLine
 10
74.96834034154694
 20
85.64998576973984
 30
0.0
 11
75.16316700904695
 21
85.3400553903398
 31
0.0
  0
LWPOLYLINE
  5
A06
330
1F
100
AcDbEntity
  8
0
  6
Continuous
 62
     7
100
AcDbPolyline
 90
        9
 70
     0
 43
0.0
 10
74.99148807944695
 20
85.62439502623979
 10
75.02717083824696
 20
85.56322172953981
 10
75.06478094314696
 20
85.5021272230398
 10
75.10408054184694
 20
85.44159036683984
 10
75.14495618274693
 20
85.38182960503981
 10
75.18751852424697
 20
85.32272549893979
 10
75.23184058594694
 20
85.26423783993974
 10
75.27793321034696
 20
85.20641962703974
 10
75.32579529774693
 20
85.14933794463981
  0
LWPOLYLINE
  5
A07
330
1F
100
AcDbEntity
  8
0
  6
Continuous
 62
     7
100
AcDbPolyline
 90
        3
 70
     0
 43
0.0
 10
71.81038360414696
 20
97.8669466548397
 10
71.93487861264697
 20
97.63856489613978
 10
72.04989309064695
 20
97.3982656492398
  0
LWPOLYLINE
  5
A08
330
1F
100
AcDbEntity
  8
0
  6
Continuous
 62
     7
100
AcDbPolyline
 90
        3
 70
     0
 43
0.0
 10
71.84063253944696
 20
97.80069641403976
 10
71.99219299394695
 20
97.50953222333976
 10
72.12208611944696
 20
97.21461651163977
  0
LWPOLYLINE
  5
A09
330
1F
100
AcDbEntity
  8
0
  6
Continuous
 62
     7
100
AcDbPolyline
 90
        4
 70
     0
 43
0.0
 10
74.89584305544695
 20
85.80728711503981
 10
74.92570886444696
 20
85.74680663873975
 10
74.95767109114694
 20
85.68562659303973
 10
74.99148807944695
 20
85.62439502623979
  0
LINE
  5
A0A
330
1F
100
AcDbEntity
  8
0
  6
Continuous
 62
     7
100
AcDbLine
 10
74.81283510244697
 20
85.98103216543986
 30
0.0
 11
74.96834034154694
 21
85.64998576973984
 31
0.0
  0
LINE
  5
A0B
330
1F
100
AcDbEntity
  8
0
  6
Continuous
 62
     7
100
AcDbLine
 10
74.84215235274695
 20
85.92567496573975
 30
0.0
 11
74.86803157824692
 21
85.86690668743974
 31
0.0
  0
LINE
  5
A0C
330
1F
100
AcDbEntity
  8
0
  6
Continuous
 62
     7
100
AcDbLine
 10
72.06501770304697
 20
97.36396883823978
 30
0.0
 11
72.10434528044695
 21
97.2715128566398
 31
0.0
  0
LINE
  5
A0D
330
1F
100
AcDbEntity
  8
0
  6
Continuous
 62
     7
100
AcDbLine
 10
72.10434528044695
 20
97.2715128566398
 30
0.0
 11
72.20648370364694
 21
97.00285461453974
 31
0.0
  0
LINE
  5
A0E
330
1F
100
AcDbEntity
  8
0
  6
Continuous
 62
     7
100
AcDbLine
 10
72.12208611944696
 20
97.21461651163977
 30
0.0
 11
72.23112911054695
 21
96.91674291953974
 31
0.0
  0
LWPOLYLINE
  5
A0F
330
1F
100
AcDbEntity
  8
0
  6
Continuous
 62
     7
100
AcDbPolyline
 90
        5
 70
     0
 43
0.0
 10
74.75765894854695
 20
86.1470530791397
 10
74.77581364084695
 20
86.09478919933975
 10
74.79613786514694
 20
86.0396820531398
 10
74.81826465794694
 20
85.98317741693973
 10
74.84215235274695
 20
85.92567496573975
  0
LWPOLYLINE
  5
A10
330
1F
100
AcDbEntity
  8
0
  6
Continuous
 62
     7
100
AcDbPolyline
 90
        3
 70
     0
 43
0.0
 10
74.67308441424697
 20
86.45987465543978
 10
74.79462723084697
 20
86.10091253913971
 10
74.95564760944697
 20
85.76824211243978
  0
LINE
  5
A11
330
1F
100
AcDbEntity
  8
0
  6
Continuous
 62
     7
100
AcDbLine
 10
72.35574076314694
 20
96.4853944312397
 30
0.0
 11
72.35502425134694
 21
96.48763538423979
 31
0.0
  0
LINE
  5
A12
330
1F
100
AcDbEntity
  8
0
  6
Continuous
 62
     7
100
AcDbLine
 10
72.20648370364694
 20
97.00285461453974
 30
0.0
 11
72.28294639214695
 21
96.76182113603978
 31
0.0
  0
LINE
  5
A13
330
1F
100
AcDbEntity
  8
0
  6
Continuous
 62
     7
100
AcDbLine
 10
74.70293593224695
 20
86.33323172543978
 30
0.0
 11
74.81283510244697
 21
85.98103216543986
 31
0.0
  0
LINE
  5
A14
330
1F
100
AcDbEntity
  8
0
  6
Continuous
 62
     7
100
AcDbLine
 10
72.23112911054695
 20
96.91674291953974
 30
0.0
 11
72.31954401314695
 21
96.61835646493981
 31
0.0
  0
LWPOLYLINE
  5
A15
330
1F
100
AcDbEntity
  8
0
  6
Continuous
 62
     7
100
AcDbPolyline
 90
        5
 70
     0
 43
0.0
 10
74.69811128244693
 20
86.34626094613977
 10
74.70181895424694
 20
86.33222733033973
 10
74.70709667164692
 20
86.31270652003982
 10
74.71492910004695
 20
86.28465179503974
 10
74.72268730244696
 20
86.25806425513976
  0
LINE
  5
A16
330
1F
100
AcDbEntity
  8
0
  6
Continuous
 62
     7
100
AcDbLine
 10
72.28881196714695
 20
96.74333107263977
 30
0.0
 11
72.35502004544693
 21
96.48765471903985
 31
0.0
  0
LINE
  5
A17
330
1F
100
AcDbEntity
  8
0
  6
Continuous
 62
     7
100
AcDbLine
 10
74.69514573464696
 20
86.35768539013977
 30
0.0
 11
74.69590653484698
 21
86.35473731733977
 31
0.0
  0
LINE
  5
A18
330
1F
100
AcDbEntity
  8
0
  6
Continuous
 62
     7
100
AcDbLine
 10
72.31954401314695
 20
96.61835646493981
 30
0.0
 11
72.35553635434695
 21
96.47249079713985
 31
0.0
  0
LWPOLYLINE
  5
A19
330
1F
100
AcDbEntity
  8
0
  6
Continuous
 62
     7
100
AcDbPolyline
 90
       19
 70
     0
 43
0.0
 10
74.64622827564695
 20
86.56719812533983
 10
74.66755738524693
 20
86.48065129233975
 10
74.78477494694695
 20
86.12524699913981
 10
74.94113582734698
 20
85.79440381353983
 10
75.13134288944695
 20
85.49206290053975
 10
75.35078113464699
 20
85.22004423323984
 10
75.59367457524695
 20
84.9809422597398
 10
75.85209576024695
 20
84.77760861763981
 10
76.12436544664696
 20
84.60719122663979
 10
76.40235431004694
 20
84.47105540583972
 10
76.66659772184695
 20
84.37205234463979
 10
76.91014415294694
 20
84.30421609423978
 10
77.13272365524693
 20
84.26025282873981
 10
77.32479099564695
 20
84.23522393223983
 10
77.47790834774693
 20
84.22327349563978
 10
77.60011949714699
 20
84.21843624043983
 10
77.70698013094694
 20
84.2172842031398
 10
77.80004885474695
 20
84.21830923853976
 10
77.90315953904695
 20
84.22062490403984
  0
LINE
  5
A1A
330
1F
100
AcDbEntity
  8
0
  6
Continuous
 62
     7
100
AcDbLine
 10
72.35553776444695
 20
96.47249112553971
 30
0.0
 11
74.67777288234697
 21
86.41378573793977
 31
0.0
  0
LINE
  5
A1B
330
1F
100
AcDbEntity
  8
0
  6
Continuous
 62
     7
100
AcDbLine
 10
72.35502095594694
 20
96.48764969113985
 30
0.0
 11
72.35480763644694
 21
96.48893085053977
 31
0.0
  0
LWPOLYLINE
  5
A1F
330
1F
100
AcDbEntity
  8
0
  6
Continuous
 62
     7
100
AcDbPolyline
 90
        7
 70
     0
 43
0.0
 10
75.32579529774693
 20
85.14933794463981
 10
75.37549152354697
 20
85.09298486003983
 10
75.42702770204695
 20
85.03742693293977
 10
75.48040600304695
 20
84.98273357973983
 10
75.53569259104697
 20
84.92891238613983
 10
75.59289398764694
 20
84.87603628803972
 10
75.65200699754695
 20
84.8241863406398
  0
LWPOLYLINE
  5
A20
330
1F
100
AcDbEntity
  8
0
  6
Continuous
 62
     7
100
AcDbPolyline
 90
        3
 70
     0
 43
0.0
 10
75.15070821444695
 20
85.46523014033985
 10
75.37507634014694
 20
85.1934979210398
 10
75.62262332864694
 20
84.95571808653984
  0
LINE
  5
A21
330
1F
100
AcDbEntity
  8
0
  6
Continuous
 62
     7
100
AcDbLine
 10
75.16316700904695
 20
85.3400553903398
 30
0.0
 11
75.39451564884695
 21
85.05591991633982
 31
0.0
  0
LWPOLYLINE
  5
A22
330
1F
100
AcDbEntity
  8
0
  6
Continuous
 62
     7
100
AcDbPolyline
 90
        3
 70
     0
 43
0.0
 10
71.25380703004694
 20
98.63196871673974
 10
71.47156725664697
 20
98.36382626193973
 10
71.66712626594694
 20
98.08613429113986
  0
LINE
  5
A23
330
1F
100
AcDbEntity
  8
0
  6
Continuous
 62
     7
100
AcDbLine
 10
71.39317444334697
 20
98.4777817480398
 30
0.0
 11
71.53588937284695
 21
98.28995480993981
 31
0.0
  0
LINE
  5
A24
330
1F
100
AcDbEntity
  8
0
  6
Continuous
 62
     7
100
AcDbLine
 10
71.53588937284695
 20
98.28995480993981
 30
0.0
 11
71.67675165154697
 21
98.08457554743974
 31
0.0
  0
LINE
  5
A25
330
1F
100
AcDbEntity
  8
0
  6
Continuous
 62
     7
100
AcDbLine
 10
71.67675165154697
 20
98.08457554743974
 30
0.0
 11
71.81038360414696
 21
97.8669466548397
 31
0.0
  0
LINE
  5
A26
330
1F
100
AcDbEntity
  8
0
  6
Continuous
 62
     7
100
AcDbLine
 10
71.66712626594694
 20
98.08613429113986
 30
0.0
 11
71.84063253944696
 21
97.80069641403976
 31
0.0
  0
LWPOLYLINE
  5
A27
330
1F
100
AcDbEntity
  8
0
  6
Continuous
 62
     7
100
AcDbPolyline
 90
       35
 70
     0
 43
0.0
 10
110.9644327343469
 20
61.87817619963984
 10
111.1949702700469
 20
61.44650258953972
 10
111.4901492597469
 20
61.04833251813978
 10
111.8222204861469
 20
60.71296132633974
 10
112.1748324280469
 20
60.43992455253977
 10
112.5420190025469
 20
60.22014244523974
 10
112.9020332574469
 20
60.05319590723981
 10
113.2400516103469
 20
59.93087156353978
 10
113.5639194992469
 20
59.83861651773977
 10
113.8874881800469
 20
59.76588531083975
 10
114.2132361516469
 20
59.70813807823983
 10
114.5426415929469
 20
59.66201976783978
 10
114.8872239276469
 20
59.62394972433981
 10
115.249653476447
 20
59.59248423093971
 10
115.6307513646469
 20
59.56663621103975
 10
116.0369162273469
 20
59.54538798603985
 10
116.4695053765469
 20
59.52834054333973
 10
116.9289524554469
 20
59.51523333733975
 10
117.4192790129469
 20
59.50582455203972
 10
117.9419545031469
 20
59.50005500963984
 10
118.4966108235469
 20
59.49791823933981
 10
119.0841297651469
 20
59.49946906383981
 10
119.7047412081469
 20
59.50485631383982
 10
120.3581405792469
 20
59.51431285223977
 10
121.043847383947
 20
59.52814069943975
 10
121.761044617147
 20
59.54669497813974
 10
122.5088269991469
 20
59.57042209653981
 10
123.2859711426469
 20
59.59986658383982
 10
124.0915838647469
 20
59.63571781453971
 10
124.9241340617469
 20
59.67888100483971
 10
125.7811889166469
 20
59.73039272793984
 10
126.6615698993469
 20
59.79147087813977
 10
127.5635564911469
 20
59.86343622533981
 10
128.483715918047
 20
59.94780510933981
 10
129.4197952828469
 20
60.04689654813979
  0
LWPOLYLINE
  5
A28
330
1F
100
AcDbEntity
  8
0
  6
Continuous
 62
     7
100
AcDbPolyline
 90
        3
 70
     0
 43
0.0
 10
110.8575239950469
 20
62.14983875053976
 10
110.8759570366469
 20
62.10403165213974
 10
110.8881577648469
 20
62.07510247623975
  0
LWPOLYLINE
  5
A29
330
1F
100
AcDbEntity
  8
0
  6
Continuous
 62
     7
100
AcDbPolyline
 90
        5
 70
     0
 43
0.0
 10
110.7965919905469
 20
62.31978799323974
 10
110.8076276947469
 20
62.28648736933975
 10
110.8233689605469
 20
62.24110293253978
 10
110.839999704447
 20
62.19553577043986
 10
110.9644327343469
 20
61.87817619963984
  0
LINE
  5
A2A
330
1F
100
AcDbEntity
  8
0
  6
Continuous
 62
     7
100
AcDbLine
 10
110.8510137893469
 20
62.17060303433982
 30
0.0
 11
110.8427100041469
 21
62.19577493233977
 31
0.0
  0
LINE
  5
A2B
330
1F
100
AcDbEntity
  8
0
  6
Continuous
 62
     7
100
AcDbLine
 10
108.6388126924469
 20
68.96074994103982
 30
0.0
 11
110.7965920272469
 21
62.31978800553976
 31
0.0
  0
LINE
  5
A2C
330
1F
100
AcDbEntity
  8
0
  6
Continuous
 62
     7
100
AcDbLine
 10
110.7957764248469
 20
62.33945496573984
 30
0.0
 11
110.795840321447
 21
62.33923066273975
 31
0.0
  0
LINE
  5
A2E
330
1F
100
AcDbEntity
  8
0
  6
Continuous
 62
     7
100
AcDbLine
 10
110.7965956897469
 20
62.31977673363974
 30
0.0
 11
110.7965897768469
 21
62.31989745333978
 31
0.0
  0
LINE
  5
A2F
330
1F
100
AcDbEntity
  8
0
  6
Continuous
 62
     7
100
AcDbLine
 10
106.3331742988469
 20
71.79290729673972
 30
0.0
 11
106.3337259884469
 21
71.77416938083969
 31
0.0
  0
LINE
  5
A30
330
1F
100
AcDbEntity
  8
0
  6
Continuous
 62
     7
100
AcDbLine
 10
110.7962692920469
 20
62.33771884203975
 30
0.0
 11
110.7965956883469
 21
62.31977673803978
 31
0.0
  0
LINE
  5
A32
330
1F
100
AcDbEntity
  8
0
  6
Continuous
 62
     7
100
AcDbLine
 10
108.6389610581469
 20
68.97909706203974
 30
0.0
 11
108.6388116159469
 21
68.96075325413973
 31
0.0
  0
LWPOLYLINE
  5
A33
330
1F
100
AcDbEntity
  8
0
  6
Continuous
 62
     7
100
AcDbPolyline
 90
       32
 70
     0
 43
0.0
 10
75.84117887604697
 20
84.67529766643975
 10
75.90816902454694
 20
84.62817588853978
 10
75.97711659084693
 20
84.5824523824398
 10
76.04800192914694
 20
84.53822203243978
 10
76.12080138884696
 20
84.49558022993974
 10
76.19549217444697
 20
84.45462010313976
 10
76.27204747784697
 20
84.41543562003984
 10
76.35043112914694
 20
84.37812383953975
 10
76.43060771364694
 20
84.34277951073978
 10
76.51253746094694
 20
84.30949774293983
 10
76.59617072474692
 20
84.27837575523973
 10
76.68145853394697
 20
84.2495083609398
 10
76.76834727004695
 20
84.2229901723398
 10
76.85677301194695
 20
84.19891682573974
 10
76.94667290604695
 20
84.17738130833972
 10
77.03797833874697
 20
84.15847599503981
 10
77.13060916344694
 20
84.14229318493973
 10
77.22448868294694
 20
84.12892190563981
 10
77.31953217624695
 20
84.11845010943979
 10
77.41563969824693
 20
84.11096438243978
 10
77.51271816034694
 20
84.10654739003975
 10
77.61066881674697
 20
84.10527949863981
 10
77.70937557424694
 20
84.10723798243976
 10
77.80873002294694
 20
84.11249644313981
 10
77.90861884054698
 20
84.12112531553978
 10
78.00891130454695
 20
84.13318986863975
 10
78.10948459184695
 20
84.14875209293986
 10
78.21021121214695
 20
84.16786995963981
 10
78.31094680574693
 20
84.19059414153982
 10
78.41155511084695
 20
84.21697243143979
 10
78.51189565484697
 20
84.24704776303974
 10
78.53715742614693
 20
84.25559488723981
  0
LWPOLYLINE
  5
A34
330
1F
100
AcDbEntity
  8
0
  6
Continuous
 62
     7
100
AcDbPolyline
 90
       10
 70
     0
 43
0.0
 10
75.65905658374697
 20
84.80186971933985
 10
75.95289738334695
 20
84.5818189547398
 10
76.27161054654695
 20
84.39920824523973
 10
76.61045820484694
 20
84.25684426373972
 10
76.96438489854696
 20
84.15693770353986
 10
77.32798140274693
 20
84.10107701243978
 10
77.69578512294694
 20
84.09014019953977
 10
78.06226526714695
 20
84.12433007393977
 10
78.42179733564693
 20
84.20314074503984
 10
78.57752347054695
 20
84.25797408733982
  0
LWPOLYLINE
  5
A35
330
1F
100
AcDbEntity
  8
0
  6
Continuous
 62
     7
100
AcDbPolyline
 90
        3
 70
     0
 43
0.0
 10
75.62262332864694
 20
84.95571808653984
 10
75.88518125344695
 20
84.7545752220398
 10
76.16121212194696
 20
84.58694404843972
  0
LWPOLYLINE
  5
A36
330
1F
100
AcDbEntity
  8
0
  6
Continuous
 62
     7
100
AcDbPolyline
 90
        3
 70
     0
 43
0.0
 10
75.65200699754695
 20
84.8241863406398
 10
75.71308806384696
 20
84.77339378593979
 10
75.77615241004693
 20
84.72373073473979
  0
LINE
  5
A37
330
1F
100
AcDbEntity
  8
0
  6
Continuous
 62
     7
100
AcDbLine
 10
75.39451564884695
 20
85.05591991633982
 30
0.0
 11
75.65905658374697
 21
84.80186971933985
 31
0.0
  0
LINE
  5
A38
330
1F
100
AcDbEntity
  8
06___PRT_ALL_SURFS
  6
Continuous
 62
     7
100
AcDbLine
 10
70.41185315684693
 20
99.50322075073977
 30
0.0
 11
71.01542000504693
 21
98.8995890745398
 31
0.0
  0
LINE
  5
A39
330
1F
100
AcDbEntity
  8
06___PRT_ALL_SURFS
  6
Continuous
 62
     7
100
AcDbLine
 10
69.78007987844694
 20
100.1407338316397
 30
0.0
 11
70.41185315684693
 21
99.50322075073977
 31
0.0
  0
LINE
  5
A3A
330
1F
100
AcDbEntity
  8
06___PRT_ALL_SURFS
  6
Continuous
 62
     7
100
AcDbLine
 10
69.14391069164692
 20
100.7885837986398
 30
0.0
 11
69.78007987844694
 21
100.1407338316397
 31
0.0
  0
LINE
  5
A3B
330
1F
100
AcDbEntity
  8
0
  6
Continuous
 62
     7
100
AcDbLine
 10
71.01542011524694
 20
98.89958903843979
 30
0.0
 11
71.10467373864693
 21
98.80828475343971
 31
0.0
  0
LINE
  5
A3C
330
1F
100
AcDbEntity
  8
06___PRT_ALL_SURFS
  6
Continuous
 62
     7
100
AcDbLine
 10
68.50324498104694
 20
101.4470386658397
 30
0.0
 11
69.14391069164692
 21
100.7885837986398
 31
0.0
  0
LINE
  5
A3D
330
1F
100
AcDbEntity
  8
0
  6
Continuous
 62
     7
100
AcDbLine
 10
65.26001653004692
 20
104.8671783118398
 30
0.0
 11
65.42962209064693
 21
104.6914961509398
 31
0.0
  0
LINE
  5
A3E
330
1F
100
AcDbEntity
  8
06___PRT_ALL_SURFS
  6
Continuous
 62
     7
100
AcDbLine
 10
67.85798560114692
 20
102.1163705024397
 30
0.0
 11
68.50324498104694
 21
101.4470386658397
 31
0.0
  0
LINE
  5
A3F
330
1F
100
AcDbEntity
  8
06___PRT_ALL_SURFS
  6
Continuous
 62
     7
100
AcDbLine
 10
67.20803894574692
 20
102.7968554912397
 30
0.0
 11
67.85798560114692
 21
102.1163705024397
 31
0.0
  0
LINE
  5
A40
330
1F
100
AcDbEntity
  8
06___PRT_ALL_SURFS
  6
Continuous
 62
     7
100
AcDbLine
 10
66.55331502274695
 20
103.4887739893397
 30
0.0
 11
67.20803894574692
 21
102.7968554912397
 31
0.0
  0
LINE
  5
A41
330
1F
100
AcDbEntity
  8
0
  6
Continuous
 62
     7
100
AcDbLine
 10
71.01245715864695
 20
98.89001929903976
 30
0.0
 11
71.25380703004694
 21
98.63196871673974
 31
0.0
  0
LINE
  5
A42
330
1F
100
AcDbEntity
  8
06___PRT_ALL_SURFS
  6
Continuous
 62
     7
100
AcDbLine
 10
65.89372516254693
 20
104.1924130597398
 30
0.0
 11
66.55331502274695
 21
103.4887739893397
 31
0.0
  0
LINE
  5
A43
330
1F
100
AcDbEntity
  8
06___PRT_ALL_SURFS
  6
Continuous
 62
     7
100
AcDbLine
 10
65.42963673324692
 20
104.6914797412397
 30
0.0
 11
65.89372516254693
 21
104.1924130597398
 31
0.0
  0
LWPOLYLINE
  5
A44
330
1F
100
AcDbEntity
  8
0
  6
Continuous
 62
     7
100
AcDbPolyline
 90
        6
 70
     0
 43
0.0
 10
107.3949387566469
 20
70.97515900413977
 10
107.722811497347
 20
70.61877383013975
 10
108.014664558547
 20
70.23235020293978
 10
108.2677623932469
 20
69.81951490883979
 10
108.4797331089469
 20
69.38414282443979
 10
108.6388114577469
 20
68.96074953833978
  0
LWPOLYLINE
  5
A45
330
1F
100
AcDbEntity
  8
0
  6
Continuous
 62
     7
100
AcDbPolyline
 90
        3
 70
     0
 43
0.0
 10
71.10847566574694
 20
98.80439547463984
 10
71.24994485174695
 20
98.64927630353978
 10
71.39317444334697
 20
98.4777817480398
  0
LINE
  5
A47
330
1F
100
AcDbEntity
  8
0
  6
Continuous
 62
     7
100
AcDbLine
 10
250.446646597647
 20
13.61286952153979
 30
0.0
 11
191.611280778947
 21
13.61286952153979
 31
0.0
  0
LINE
  5
A48
330
1F
100
AcDbEntity
  8
06___PRT_ALL_SURFS
  6
Continuous
 62
     7
100
AcDbLine
 10
221.0296249088469
 20
13.61286952153979
 30
0.0
 11
250.447969038747
 21
13.61286952153979
 31
0.0
  0
LINE
  5
A49
330
1F
100
AcDbEntity
  8
0
  6
Continuous
 62
     7
100
AcDbLine
 10
186.6303072884469
 20
18.17709080773979
 30
0.0
 11
255.428942529147
 21
18.17709080773979
 31
0.0
  0
LWPOLYLINE
  5
A4A
330
1F
100
AcDbEntity
  8
0
  6
Continuous
 62
     7
100
AcDbPolyline
 90
        4
 70
     0
 43
0.0
 10
106.3337273507469
 20
71.7741651614398
 10
106.6437363101469
 20
71.58474778973982
 10
107.0341194816469
 20
71.29816103613986
 10
107.3949387566469
 20
70.97515900413977
  0
LINE
  5
A4B
330
1F
100
AcDbEntity
  8
06___PRT_ALL_SURFS
  6
Continuous
 62
     7
100
AcDbLine
 10
97.50066158174696
 20
77.17761411483981
 30
0.0
 11
98.46226096824693
 21
76.54986208263974
 31
0.0
  0
LINE
  5
A4C
330
1F
100
AcDbEntity
  8
06___PRT_ALL_SURFS
  6
Continuous
 62
     7
100
AcDbLine
 10
96.93904000814695
 20
77.5490983638398
 30
0.0
 11
97.50066158174696
 21
77.17761411483981
 31
0.0
  0
LINE
  5
A4D
330
1F
100
AcDbEntity
  8
06___PRT_ALL_SURFS
  6
Continuous
 62
     7
100
AcDbLine
 10
96.36869983564695
 20
77.93002335183975
 30
0.0
 11
97.01619552884691
 21
77.49783574013976
 31
0.0
  0
LINE
  5
A4E
330
1F
100
AcDbEntity
  8
06___PRT_ALL_SURFS
  6
Continuous
 62
     7
100
AcDbLine
 10
95.79683203864695
 20
78.31568271053972
 30
0.0
 11
96.37758897644696
 21
77.92404114523971
 31
0.0
  0
LINE
  5
A4F
330
1F
100
AcDbEntity
  8
06___PRT_ALL_SURFS
  6
Continuous
 62
     7
100
AcDbLine
 10
95.22983679024696
 20
78.70179435373974
 30
0.0
 11
95.79683203864695
 21
78.31568271053972
 31
0.0
  0
LINE
  5
A50
330
1F
100
AcDbEntity
  8
06___PRT_ALL_SURFS
  6
Continuous
 62
     7
100
AcDbLine
 10
94.65094526504694
 20
79.09979338693974
 30
0.0
 11
95.22983679024696
 21
78.70179435373974
 31
0.0
  0
LINE
  5
A51
330
1F
100
AcDbEntity
  8
06___PRT_ALL_SURFS
  6
Continuous
 62
     7
100
AcDbLine
 10
94.09973394704694
 20
79.48239985243983
 30
0.0
 11
94.67033150754692
 21
79.08641900643978
 31
0.0
  0
LINE
  5
A52
330
1F
100
AcDbEntity
  8
06___PRT_ALL_SURFS
  6
Continuous
 62
     7
100
AcDbLine
 10
93.51864014774696
 20
79.88955517353976
 30
0.0
 11
94.09973394704694
 21
79.48239985243983
 31
0.0
  0
LINE
  5
A53
330
1F
100
AcDbEntity
  8
06___PRT_ALL_SURFS
  6
Continuous
 62
     7
100
AcDbLine
 10
92.95898784034696
 20
80.28541641593973
 30
0.0
 11
93.51864014774696
 21
79.88955517353976
 31
0.0
  0
LINE
  5
A54
330
1F
100
AcDbEntity
  8
06___PRT_ALL_SURFS
  6
Continuous
 62
     7
100
AcDbLine
 10
92.39095683804695
 20
80.69096504983976
 30
0.0
 11
92.95898784034696
 21
80.28541641593973
 31
0.0
  0
LINE
  5
A55
330
1F
100
AcDbEntity
  8
06___PRT_ALL_SURFS
  6
Continuous
 62
     7
100
AcDbLine
 10
91.81505612754694
 20
81.1060205604398
 30
0.0
 11
92.39095683804695
 21
80.69096504983976
 31
0.0
  0
LINE
  5
A56
330
1F
100
AcDbEntity
  8
06___PRT_ALL_SURFS
  6
Continuous
 62
     7
100
AcDbLine
 10
91.23165165194695
 20
81.53049803733974
 30
0.0
 11
91.81505612754694
 21
81.1060205604398
 31
0.0
  0
LINE
  5
A57
330
1F
100
AcDbEntity
  8
06___PRT_ALL_SURFS
  6
Continuous
 62
     7
100
AcDbLine
 10
90.63968759614693
 20
81.96535663893975
 30
0.0
 11
91.23165165194695
 21
81.53049803733974
 31
0.0
  0
LINE
  5
A58
330
1F
100
AcDbEntity
  8
06___PRT_ALL_SURFS
  6
Continuous
 62
     7
100
AcDbLine
 10
90.07108648434694
 20
82.38701469023977
 30
0.0
 11
90.63968759614693
 21
81.96535663893975
 31
0.0
  0
LINE
  5
A59
330
1F
100
AcDbEntity
  8
06___PRT_ALL_SURFS
  6
Continuous
 62
     7
100
AcDbLine
 10
89.49164271184695
 20
82.82072641743981
 30
0.0
 11
90.07108648434694
 21
82.38701469023977
 31
0.0
  0
LINE
  5
A5A
330
1F
100
AcDbEntity
  8
06___PRT_ALL_SURFS
  6
Continuous
 62
     7
100
AcDbLine
 10
88.89979172944697
 20
83.26792559523973
 30
0.0
 11
89.49164271184695
 21
82.82072641743981
 31
0.0
  0
LINE
  5
A5B
330
1F
100
AcDbEntity
  8
06___PRT_ALL_SURFS
  6
Continuous
 62
     7
100
AcDbLine
 10
88.330030229447
 20
83.70246278583977
 30
0.0
 11
88.89979172944697
 21
83.26792559523973
 31
0.0
  0
LINE
  5
A5C
330
1F
100
AcDbEntity
  8
06___PRT_ALL_SURFS
  6
Continuous
 62
     7
100
AcDbLine
 10
87.74661781984695
 20
84.15152524313976
 30
0.0
 11
88.330030229447
 21
83.70246278583977
 31
0.0
  0
LINE
  5
A5D
330
1F
100
AcDbEntity
  8
06___PRT_ALL_SURFS
  6
Continuous
 62
     7
100
AcDbLine
 10
87.52489750904695
 20
84.3232830157398
 30
0.0
 11
87.74661781984695
 21
84.15152524313976
 31
0.0
  0
LWPOLYLINE
  5
A5E
330
1F
100
AcDbEntity
  8
0
  6
Continuous
 62
     7
100
AcDbPolyline
 90
        3
 70
     0
 43
0.0
 10
145.1021639494469
 20
56.50786271743983
 10
145.5612423857469
 20
56.1483182111398
 10
145.964343013947
 20
55.74869068903979
  0
LINE
  5
A5F
330
1F
100
AcDbEntity
  8
0
  6
Continuous
 62
     7
100
AcDbLine
 10
145.9751850661469
 20
55.73794205173978
 30
0.0
 11
146.338413050147
 21
55.28238220003983
 31
0.0
  0
LWPOLYLINE
  5
A60
330
1F
100
AcDbEntity
  8
0
  6
Continuous
 62
     7
100
AcDbPolyline
 90
       34
 70
     0
 43
0.0
 10
148.7002780397469
 20
49.53029674563983
 10
148.9682323636469
 20
49.16204472793982
 10
149.270742878547
 20
48.84531353343972
 10
149.5971419388469
 20
48.57974259033973
 10
149.9411445988469
 20
48.36097299733979
 10
150.2802309871469
 20
48.19219901713974
 10
150.6007096740469
 20
48.06666469253982
 10
150.9090604487469
 20
47.97109574653986
 10
151.213785874247
 20
47.89633596303976
 10
151.5155438914469
 20
47.83777848613978
 10
151.8171053227469
 20
47.79143168443979
 10
152.1296083788469
 20
47.75344714663972
 10
152.4556746903469
 20
47.72225883473982
 10
152.7964059261469
 20
47.69676344583969
 10
153.1582834132469
 20
47.67582005443979
 10
153.5426171743469
 20
47.65898430583969
 10
153.9499738921469
 20
47.64596555223977
 10
154.384583461447
 20
47.63650294673984
 10
154.8480644172469
 20
47.63054792553977
 10
155.3401218148469
 20
47.6280721114398
 10
155.861703678147
 20
47.62909747373977
 10
156.4131019643469
 20
47.63375135073978
 10
156.9940512533469
 20
47.64225515643977
 10
157.6041087926469
 20
47.6548920594397
 10
158.2425138915469
 20
47.67195076593977
 10
158.9084530141469
 20
47.69380472383978
 10
159.6007578365469
 20
47.72092655883978
 10
160.3185556107469
 20
47.75393012363975
 10
161.0604432581469
 20
47.7935936448397
 10
161.8241974008469
 20
47.84079064573974
 10
162.608742902847
 20
47.89656178273982
 10
163.4125021215469
 20
47.96204145483978
 10
164.2323154418469
 20
48.03850377083974
 10
165.0661869481469
 20
48.12788735873972
  0
LINE
  5
A61
330
1F
100
AcDbEntity
  8
0
  6
Continuous
 62
     7
100
AcDbLine
 10
146.338413050147
 20
55.28238220003983
 30
0.0
 11
146.646040623947
 21
54.78791653343979
 31
0.0
  0
LINE
  5
A62
330
1F
100
AcDbEntity
  8
0
  6
Continuous
 62
     7
100
AcDbLine
 10
146.646040623947
 20
54.78791653343979
 30
0.0
 11
146.8939752483469
 21
54.26131952913978
 31
0.0
  0
LWPOLYLINE
  5
A63
330
1F
100
AcDbEntity
  8
0
  6
Continuous
 62
     7
100
AcDbPolyline
 90
        3
 70
     0
 43
0.0
 10
148.4018873002469
 20
50.13613075673982
 10
148.4877443314469
 20
49.9267806086398
 10
148.7002780397469
 20
49.53029674563983
  0
LWPOLYLINE
  5
A64
330
1F
100
AcDbEntity
  8
0
  6
Continuous
 62
     7
100
AcDbPolyline
 90
        3
 70
     0
 43
0.0
 10
148.3472235565469
 20
50.27648990223976
 10
148.375257912147
 20
50.20357285183981
 10
148.3907158660469
 20
50.16631621883973
  0
LINE
  5
A65
330
1F
100
AcDbEntity
  8
0
  6
Continuous
 62
     7
100
AcDbLine
 10
146.8939752483469
 20
54.26131952913978
 30
0.0
 11
146.9524579724469
 21
54.10847041403987
 31
0.0
  0
LINE
  5
A66
330
1F
100
AcDbEntity
  8
0
  6
Continuous
 62
     7
100
AcDbLine
 10
148.344460844447
 20
50.29249435503984
 30
0.0
 11
148.3436926774469
 21
50.29451881253978
 31
0.0
  0
LINE
  5
A67
330
1F
100
AcDbEntity
  8
0
  6
Continuous
 62
     7
100
AcDbLine
 10
148.3436926774469
 20
50.29451881253978
 30
0.0
 11
148.3431305817469
 21
50.29602854093981
 31
0.0
  0
LINE
  5
A68
330
1F
100
AcDbEntity
  8
0
  6
Continuous
 62
     7
100
AcDbLine
 10
148.4017687891469
 20
50.13608681253982
 30
0.0
 11
148.3954294160469
 21
50.15333726953976
 31
0.0
  0
LINE
  5
A69
330
1F
100
AcDbEntity
  8
0
  6
Continuous
 62
     7
100
AcDbLine
 10
146.9524587454469
 20
54.10847069433977
 30
0.0
 11
148.3421007616469
 21
50.29046063373971
 31
0.0
  0
LINE
  5
A6B
330
1F
100
AcDbEntity
  8
0
  6
Continuous
 62
     7
100
AcDbLine
 10
146.9525202040469
 20
54.11819781403984
 30
0.0
 11
146.952448847347
 21
54.10849788923975
 31
0.0
  0
LWPOLYLINE
  5
A6C
330
1F
100
AcDbEntity
  8
0
  6
Continuous
 62
     7
100
AcDbPolyline
 90
        3
 70
     0
 43
0.0
 10
144.0738659599469
 20
57.05541481243972
 10
144.6041292259469
 20
56.81163022633974
 10
145.1021639494469
 20
56.50786271743983
  0
LWPOLYLINE
  5
A6D
330
1F
100
AcDbEntity
  8
0
  6
Continuous
 62
     7
100
AcDbPolyline
 90
        6
 70
     0
 43
0.0
 10
76.16121212194696
 20
84.58694404843972
 10
76.44223587134695
 20
84.45413520743979
 10
76.70786040934695
 20
84.35882988713983
 10
76.95061929384696
 20
84.29473028563974
 10
77.17095586254695
 20
84.25404840863986
 10
77.36032463004694
 20
84.23148740253976
  0
LINE
  5
A6E
330
1F
100
AcDbEntity
  8
0
  6
Continuous
 62
     7
100
AcDbLine
 10
148.3441847301469
 20
50.29345588343971
 30
0.0
 11
148.3444712759469
 21
50.29249637503984
 31
0.0
  0
LWPOLYLINE
  5
A6F
330
1F
100
AcDbEntity
  8
0
  6
Continuous
 62
     7
100
AcDbPolyline
 90
        6
 70
     0
 43
0.0
 10
143.4417028639469
 20
57.26499896613987
 10
143.4422749152469
 20
57.26120331193978
 10
143.4421858330469
 20
57.25835386123971
 10
143.4418762033469
 20
57.25643708353985
 10
143.4417552407469
 20
57.2554183920397
 10
143.4417874889469
 20
57.25524476893976
  0
LINE
  5
A70
330
1F
100
AcDbEntity
  8
06___PRT_ALL_SURFS
  6
Continuous
 62
     7
100
AcDbLine
 10
298.4517854271469
 20
57.2116970544397
 30
0.0
 11
298.617344991347
 21
57.25520713803975
 31
0.0
  0
LINE
  5
A71
330
1F
100
AcDbEntity
  8
06___PRT_ALL_SURFS
  6
Continuous
 62
     7
100
AcDbLine
 10
297.494433473847
 20
56.99641907173976
 30
0.0
 11
298.330924854547
 21
57.19759024133977
 31
0.0
  0
LWPOLYLINE
  5
A72
330
1F
100
AcDbEntity
  8
06___PRT_ALL_SURFS
  6
Continuous
 62
     7
100
AcDbPolyline
 90
       12
 70
     0
 43
0.0
 10
328.1888034253469
 20
59.76930167373975
 10
328.4913652986469
 20
59.8376159598397
 10
328.7998015300469
 20
59.92471524383974
 10
329.1133276490469
 20
60.03559571873974
 10
329.438442552047
 20
60.17991021683975
 10
329.7801671896469
 20
60.37164583923982
 10
330.123210577747
 20
60.61695476493982
 10
330.4431409242468
 20
60.91008336593974
 10
330.7329342693469
 20
61.25403489973987
 10
330.981906527247
 20
61.64767643633981
 10
331.170647123047
 20
62.06448968813983
 10
331.2123582428469
 20
62.18346572893985
  0
LWPOLYLINE
  5
A73
330
1F
100
AcDbEntity
  8
06___PRT_ALL_SURFS
  6
Continuous
 62
     7
100
AcDbPolyline
 90
        9
 70
     0
 43
0.0
 10
327.899642782647
 20
59.71672072443972
 10
328.226164264847
 20
59.77691163983981
 10
328.5521884161469
 20
59.85325629073976
 10
328.8796291771469
 20
59.95063193643979
 10
329.221166541947
 20
60.07989480623975
 10
329.584252367747
 20
60.25619704193971
 10
329.9531476103469
 20
60.48779025843977
 10
330.304178986947
 20
60.77362323193972
 10
330.630674969747
 20
61.12178236073977
  0
LINE
  5
A74
330
1F
100
AcDbEntity
  8
06___PRT_ALL_SURFS
  6
Continuous
 62
     7
100
AcDbLine
 10
327.5813841409469
 20
59.6702560551397
 30
0.0
 11
327.889470859847
 21
59.71507453823985
 31
0.0
  0
LINE
  5
A75
330
1F
100
AcDbEntity
  8
06___PRT_ALL_SURFS
  6
Continuous
 62
     7
100
AcDbLine
 10
327.2271417947469
 20
59.62948784653975
 30
0.0
 11
327.570662161947
 21
59.6688854885398
 31
0.0
  0
LINE
  5
A76
330
1F
100
AcDbEntity
  8
06___PRT_ALL_SURFS
  6
Continuous
 62
     7
100
AcDbLine
 10
326.866354207747
 20
59.59695546003981
 30
0.0
 11
327.2613344314469
 21
59.63296396083968
 31
0.0
  0
LWPOLYLINE
  5
A77
330
1F
100
AcDbEntity
  8
06___PRT_ALL_SURFS
  6
Continuous
 62
     7
100
AcDbPolyline
 90
       12
 70
     0
 43
0.0
 10
288.959715180247
 20
47.67886840583971
 10
289.3191520871468
 20
47.70059024363979
 10
289.6577891190471
 20
47.72699015633977
 10
289.9825719686469
 20
47.75930906783982
 10
290.2946073560469
 20
47.79875786373977
 10
290.5964851107469
 20
47.84705074833971
 10
290.899645592347
 20
47.90836486373975
 10
291.207290356247
 20
47.98715784703974
 10
291.5194872246469
 20
48.08835002353977
 10
291.843341125147
 20
48.22119130553971
 10
292.1847627051469
 20
48.39929172073984
 10
292.5294602375469
 20
48.62934097983977
  0
LINE
  5
A78
330
1F
100
AcDbEntity
  8
06___PRT_ALL_SURFS
  6
Continuous
 62
     7
100
AcDbLine
 10
288.5541707054469
 20
47.66041755303979
 30
0.0
 11
288.938252199747
 21
47.67772899503985
 31
0.0
  0
LINE
  5
A79
330
1F
100
AcDbEntity
  8
06___PRT_ALL_SURFS
  6
Continuous
 62
     7
100
AcDbLine
 10
288.147210177347
 20
47.64699539273978
 30
0.0
 11
288.5780156185469
 21
47.6613508964398
 31
0.0
  0
LINE
  5
A7A
330
1F
100
AcDbEntity
  8
0
  6
Continuous
 62
     7
100
AcDbLine
 10
166.8777265887469
 20
48.30620855503982
 30
0.0
 11
167.2965029727469
 21
48.31824311443972
 31
0.0
  0
LINE
  5
A7B
330
1F
100
AcDbEntity
  8
06___PRT_ALL_SURFS
  6
Continuous
 62
     7
100
AcDbLine
 10
287.712901761947
 20
47.63717381963977
 30
0.0
 11
288.173515399147
 21
47.64773184003979
 31
0.0
  0
LINE
  5
A7C
330
1F
100
AcDbEntity
  8
06___PRT_ALL_SURFS
  6
Continuous
 62
     7
100
AcDbLine
 10
287.249538023047
 20
47.63089804253982
 30
0.0
 11
287.741795807947
 21
47.63772299473976
 31
0.0
  0
LINE
  5
A7D
330
1F
100
AcDbEntity
  8
06___PRT_ALL_SURFS
  6
Continuous
 62
     7
100
AcDbLine
 10
286.757432837747
 20
47.6281380573397
 30
0.0
 11
287.2812897099469
 21
47.63124056283984
 31
0.0
  0
LINE
  5
A7E
330
1F
100
AcDbEntity
  8
0
  6
Continuous
 62
     7
100
AcDbLine
 10
167.2965029727469
 20
48.31824311443972
 30
0.0
 11
167.501567222347
 21
48.31932631723977
 31
0.0
  0
LINE
  5
A7F
330
1F
100
AcDbEntity
  8
06___PRT_ALL_SURFS
  6
Continuous
 62
     7
100
AcDbLine
 10
221.029624908947
 20
48.31652796083973
 30
0.0
 11
274.557413958047
 21
48.31936573193971
 31
0.0
  0
LINE
  5
A80
330
1F
100
AcDbEntity
  8
06___PRT_ALL_SURFS
  6
Continuous
 62
     7
100
AcDbLine
 10
273.5141583757469
 20
48.31873835133979
 30
0.0
 11
273.678761458547
 21
48.31859641193979
 31
0.0
  0
LINE
  5
A81
330
1F
100
AcDbEntity
  8
06___PRT_ALL_SURFS
  6
Continuous
 62
     7
100
AcDbLine
 10
286.235575226847
 20
47.62890699123977
 30
0.0
 11
286.7922994101469
 21
47.62823832943968
 31
0.0
  0
LINE
  5
A82
330
1F
100
AcDbEntity
  8
0
  6
Continuous
 62
     7
100
AcDbLine
 10
167.5015673267469
 20
48.3193523430398
 30
0.0
 11
221.0296249087469
 21
48.31652796083973
 31
0.0
  0
LINE
  5
A83
330
1F
100
AcDbEntity
  8
06___PRT_ALL_SURFS
  6
Continuous
 62
     7
100
AcDbLine
 10
274.5574140614469
 20
48.31933451143982
 30
0.0
 11
274.762746844847
 21
48.31824311443972
 31
0.0
  0
LINE
  5
A84
330
1F
100
AcDbEntity
  8
06___PRT_ALL_SURFS
  6
Continuous
 62
     7
100
AcDbLine
 10
285.6836641832469
 20
47.63332612883973
 30
0.0
 11
286.273693652347
 21
47.62873763243979
 31
0.0
  0
LINE
  5
A85
330
1F
100
AcDbEntity
  8
06___PRT_ALL_SURFS
  6
Continuous
 62
     7
100
AcDbLine
 10
285.101966538147
 20
47.64161232893981
 30
0.0
 11
285.7250789493469
 21
47.63286959373977
 31
0.0
  0
LINE
  5
A86
330
1F
100
AcDbEntity
  8
06___PRT_ALL_SURFS
  6
Continuous
 62
     7
100
AcDbLine
 10
284.4908644378469
 20
47.65405173253975
 30
0.0
 11
285.146693581747
 21
47.64085822393975
 31
0.0
  0
LWPOLYLINE
  5
A87
330
1F
100
AcDbEntity
  8
06___PRT_ALL_SURFS
  6
Continuous
 62
     7
100
AcDbPolyline
 90
        5
 70
     0
 43
0.0
 10
274.6742528754469
 20
48.31911431133973
 10
275.092650405747
 20
48.30986554213975
 10
275.523950977347
 20
48.28683576773972
 10
275.9674151199469
 20
48.24935487263974
 10
276.3719098267469
 20
48.20334800483978
  0
LINE
  5
A88
330
1F
100
AcDbEntity
  8
06___PRT_ALL_SURFS
  6
Continuous
 62
     7
100
AcDbLine
 10
283.8511061510469
 20
47.67093486653982
 30
0.0
 11
284.5390149897469
 21
47.65295867183978
 31
0.0
  0
LINE
  5
A89
330
1F
100
AcDbEntity
  8
06___PRT_ALL_SURFS
  6
Continuous
 62
     7
100
AcDbLine
 10
274.762746844847
 20
48.31824311443972
 30
0.0
 11
275.181523228947
 21
48.30620855503982
 31
0.0
  0
LINE
  5
A8A
330
1F
100
AcDbEntity
  8
06___PRT_ALL_SURFS
  6
Continuous
 62
     7
100
AcDbLine
 10
283.1835158303469
 20
47.69263453123972
 30
0.0
 11
283.902814095947
 21
47.66944146403979
 31
0.0
  0
LINE
  5
A8B
330
1F
100
AcDbEntity
  8
06___PRT_ALL_SURFS
  6
Continuous
 62
     7
100
AcDbLine
 10
282.489243361047
 20
47.71962519543979
 30
0.0
 11
283.238862279447
 21
47.69067401663972
 31
0.0
  0
LINE
  5
A8C
330
1F
100
AcDbEntity
  8
06___PRT_ALL_SURFS
  6
Continuous
 62
     7
100
AcDbLine
 10
281.7691714936469
 20
47.75252273643981
 30
0.0
 11
282.548268423847
 21
47.7171275626397
 31
0.0
  0
LINE
  5
A8D
330
1F
100
AcDbEntity
  8
06___PRT_ALL_SURFS
  6
Continuous
 62
     7
100
AcDbLine
 10
281.0247179743469
 20
47.79210848853972
 30
0.0
 11
281.831886236647
 21
47.74941984273971
 31
0.0
  0
LWPOLYLINE
  5
A90
330
1F
100
AcDbEntity
  8
0
  6
Continuous
 62
     7
100
AcDbPolyline
 90
        3
 70
     0
 43
0.0
 10
143.4419048262469
 20
57.25520713803975
 10
143.5185591942469
 20
57.23581500033983
 10
144.0738659599469
 20
57.05541481243972
  0
LINE
  5
A94
330
1F
100
AcDbEntity
  8
0
  6
Continuous
 62
     7
100
AcDbLine
 10
148.3431305817469
 20
50.29602854093981
 30
0.0
 11
148.3419502416469
 21
50.29087418403982
 31
0.0
  0
LINE
  5
A96
330
1F
100
AcDbEntity
  8
0
  6
Continuous
 62
     7
100
AcDbLine
 10
165.0661869481469
 20
48.12788735873972
 30
0.0
 11
166.0024410361469
 21
48.24012143343977
 31
0.0
  0
LWPOLYLINE
  5
A97
330
1F
100
AcDbEntity
  8
0
  6
Continuous
 62
     7
100
AcDbPolyline
 90
        5
 70
     0
 43
0.0
 10
165.6873399909469
 20
48.20334800483978
 10
166.0918346977469
 20
48.24935487263974
 10
166.5352988403469
 20
48.28683576773972
 10
166.9665994119469
 20
48.30986554213975
 10
167.384996942147
 20
48.31911431133973
  0
LINE
  5
A98
330
1F
100
AcDbEntity
  8
0
  6
Continuous
 62
     7
100
AcDbLine
 10
166.0024410361469
 20
48.24012143343977
 30
0.0
 11
166.4461308199468
 21
48.28038683123978
 31
0.0
  0
LINE
  5
A99
330
1F
100
AcDbEntity
  8
06___PRT_ALL_SURFS
  6
Continuous
 62
     7
100
AcDbLine
 10
326.4875895054469
 20
59.57024401243974
 30
0.0
 11
326.928897284847
 21
59.60200938533978
 31
0.0
  0
LINE
  5
A9A
330
1F
100
AcDbEntity
  8
0
  6
Continuous
 62
     7
100
AcDbLine
 10
166.4461308199468
 20
48.28038683123978
 30
0.0
 11
166.8777265887469
 21
48.30620855503982
 31
0.0
  0
LINE
  5
A9B
330
1F
100
AcDbEntity
  8
0
  6
Continuous
 62
     7
100
AcDbLine
 10
131.026396853047
 20
60.22733516083976
 30
0.0
 11
131.4637505320469
 21
60.25341991613983
 31
0.0
  0
LINE
  5
A9C
330
1F
100
AcDbEntity
  8
06___PRT_ALL_SURFS
  6
Continuous
 62
     7
100
AcDbLine
 10
326.0840582992468
 20
59.54825366403976
 30
0.0
 11
326.5781456850469
 21
59.57601914723979
 31
0.0
  0
LWPOLYLINE
  5
A9D
330
1F
100
AcDbEntity
  8
06___PRT_ALL_SURFS
  6
Continuous
 62
     7
100
AcDbPolyline
 90
        3
 70
     0
 43
0.0
 10
325.197842129147
 20
59.51687207893975
 10
325.6542922903469
 20
59.53055657103984
 10
326.208548794147
 20
59.55442211193975
  0
LINE
  5
A9E
330
1F
100
AcDbEntity
  8
0
  6
Continuous
 62
     7
100
AcDbLine
 10
131.4637505320469
 20
60.25341991613983
 30
0.0
 11
131.8880631137469
 21
60.26530798413979
 31
0.0
  0
LWPOLYLINE
  5
A9F
330
1F
100
AcDbEntity
  8
06___PRT_ALL_SURFS
  6
Continuous
 62
     7
100
AcDbPolyline
 90
        3
 70
     0
 43
0.0
 10
324.964918262747
 20
59.51157788903984
 10
325.405252701647
 20
59.5225201175398
 10
325.819231493047
 20
59.53674680273981
  0
LINE
  5
AA0
330
1F
100
AcDbEntity
  8
06___PRT_ALL_SURFS
  6
Continuous
 62
     7
100
AcDbLine
 10
324.498308247947
 20
59.50386147593976
 30
0.0
 11
325.197842129147
 21
59.51687207893975
 31
0.0
  0
LINE
  5
AA1
330
1F
100
AcDbEntity
  8
06___PRT_ALL_SURFS
  6
Continuous
 62
     7
100
AcDbLine
 10
324.0036798793469
 20
59.49930564183979
 30
0.0
 11
324.710475905247
 21
59.50692860393975
 31
0.0
  0
LINE
  5
AA2
330
1F
100
AcDbEntity
  8
0
  6
Continuous
 62
     7
100
AcDbLine
 10
131.8880631137469
 20
60.26530798413979
 30
0.0
 11
132.8000397019615
 21
60.26869274971153
 31
0.0
  0
LINE
  5
AA3
330
1F
100
AcDbEntity
  8
06___PRT_ALL_SURFS
  6
Continuous
 62
     7
100
AcDbLine
 10
323.4806380642469
 20
59.49791153813977
 30
0.0
 11
324.190797513847
 21
59.50063994583969
 31
0.0
  0
LINE
  5
ABB
330
1F
100
AcDbEntity
  8
06___PRT_ALL_SURFS
  6
Continuous
 62
     7
100
AcDbLine
 10
322.9293247757468
 20
59.49974006083973
 30
0.0
 11
323.639175097347
 21
59.49799113723976
 31
0.0
  0
LINE
  5
ABC
330
1F
100
AcDbEntity
  8
06___PRT_ALL_SURFS
  6
Continuous
 62
     7
100
AcDbLine
 10
309.9517182753469
 20
60.26615654723982
 30
0.0
 11
310.1711867039469
 21
60.26530798413979
 31
0.0
  0
LINE
  5
ABE
330
1F
100
AcDbEntity
  8
06___PRT_ALL_SURFS
  6
Continuous
 62
     7
100
AcDbLine
 10
322.349387753047
 20
59.50491571473982
 30
0.0
 11
323.0545693549469
 21
59.49903370053972
 31
0.0
  0
LINE
  5
ABF
330
1F
100
AcDbEntity
  8
06___PRT_ALL_SURFS
  6
Continuous
 62
     7
100
AcDbLine
 10
321.7407880757469
 20
59.51363288003985
 30
0.0
 11
322.4366538261469
 21
59.50391611543978
 31
0.0
  0
LINE
  5
AC0
330
1F
100
AcDbEntity
  8
06___PRT_ALL_SURFS
  6
Continuous
 62
     7
100
AcDbLine
 10
310.0828178100469
 20
60.26611413413981
 30
0.0
 11
310.506681025547
 21
60.25705512933974
 31
0.0
  0
LWPOLYLINE
  5
AC1
330
1F
100
AcDbEntity
  8
06___PRT_ALL_SURFS
  6
Continuous
 62
     7
100
AcDbPolyline
 90
        3
 70
     0
 43
0.0
 10
320.3871197049469
 20
59.54416303953975
 10
321.1022508504469
 20
59.52617120583979
 10
321.785700914847
 20
59.51286867833973
  0
LINE
  5
AC2
330
1F
100
AcDbEntity
  8
06___PRT_ALL_SURFS
  6
Continuous
 62
     7
100
AcDbLine
 10
310.1711867039469
 20
60.26530798413979
 30
0.0
 11
310.5954992855469
 21
60.25341991613983
 31
0.0
  0
LINE
  5
AC3
330
1F
100
AcDbEntity
  8
06___PRT_ALL_SURFS
  6
Continuous
 62
     7
100
AcDbLine
 10
319.6411753275469
 20
59.56728073073978
 30
0.0
 11
320.4396214621469
 21
59.54271022413982
 31
0.0
  0
LINE
  5
AC4
330
1F
100
AcDbEntity
  8
06___PRT_ALL_SURFS
  6
Continuous
 62
     7
100
AcDbLine
 10
318.865592794647
 20
59.59606269003973
 30
0.0
 11
319.748621596947
 21
59.56369714333971
 31
0.0
  0
LINE
  5
AC5
330
1F
100
AcDbEntity
  8
06___PRT_ALL_SURFS
  6
Continuous
 62
     7
100
AcDbLine
 10
318.061249853147
 20
59.63120883783973
 30
0.0
 11
319.0317419367469
 21
59.58952495753978
 31
0.0
  0
LINE
  5
AC6
330
1F
100
AcDbEntity
  8
06___PRT_ALL_SURFS
  6
Continuous
 62
     7
100
AcDbLine
 10
317.2296351999469
 20
59.67362726963973
 30
0.0
 11
318.2900778755469
 21
59.62069943523978
 31
0.0
  0
LWPOLYLINE
  5
AC7
330
1F
100
AcDbEntity
  8
06___PRT_ALL_SURFS
  6
Continuous
 62
     7
100
AcDbPolyline
 90
        4
 70
     0
 43
0.0
 10
310.506681025547
 20
60.25705512933974
 10
310.9436753414469
 20
60.23381144823975
 10
311.3929654489469
 20
60.19569153483975
 10
311.8133527228469
 20
60.14739859163979
  0
LINE
  5
AC8
330
1F
100
AcDbEntity
  8
06___PRT_ALL_SURFS
  6
Continuous
 62
     7
100
AcDbLine
 10
316.3731227160468
 20
59.72431097903985
 30
0.0
 11
317.5243451700469
 21
59.65789404633973
 31
0.0
  0
LINE
  5
AC9
330
1F
100
AcDbEntity
  8
06___PRT_ALL_SURFS
  6
Continuous
 62
     7
100
AcDbLine
 10
310.5954992855469
 20
60.25341991613983
 30
0.0
 11
311.0328529645471
 21
60.22733516083976
 31
0.0
  0
LINE
  5
ACA
330
1F
100
AcDbEntity
  8
06___PRT_ALL_SURFS
  6
Continuous
 62
     7
100
AcDbLine
 10
275.181523228947
 20
48.30620855503982
 30
0.0
 11
275.6131189976469
 21
48.28038683123978
 31
0.0
  0
LINE
  5
ACB
330
1F
100
AcDbEntity
  8
06___PRT_ALL_SURFS
  6
Continuous
 62
     7
100
AcDbLine
 10
280.258088741947
 20
47.83926764823981
 30
0.0
 11
281.0910862547469
 21
47.78832296943972
 31
0.0
  0
LINE
  5
ACC
330
1F
100
AcDbEntity
  8
06___PRT_ALL_SURFS
  6
Continuous
 62
     7
100
AcDbLine
 10
279.470363305247
 20
47.89505401783983
 30
0.0
 11
280.3280520274469
 21
47.83468075363977
 31
0.0
  0
LINE
  5
ACD
330
1F
100
AcDbEntity
  8
06___PRT_ALL_SURFS
  6
Continuous
 62
     7
100
AcDbLine
 10
278.663140873047
 20
47.96061653053972
 30
0.0
 11
279.543905053147
 21
47.88950170023976
 31
0.0
  0
LINE
  5
ACE
330
1F
100
AcDbEntity
  8
06___PRT_ALL_SURFS
  6
Continuous
 62
     7
100
AcDbLine
 10
275.6131189976469
 20
48.28038683123978
 30
0.0
 11
276.0568087814469
 21
48.24012143343977
 31
0.0
  0
LINE
  5
ACF
330
1F
100
AcDbEntity
  8
06___PRT_ALL_SURFS
  6
Continuous
 62
     7
100
AcDbLine
 10
277.839592218747
 20
48.0372415209398
 30
0.0
 11
278.740259622347
 21
47.95389786243982
 31
0.0
  0
LINE
  5
AD0
330
1F
100
AcDbEntity
  8
06___PRT_ALL_SURFS
  6
Continuous
 62
     7
100
AcDbLine
 10
277.044172153147
 20
48.12235085743978
 30
0.0
 11
277.0857000179469
 21
48.11735585353972
 31
0.0
  0
LWPOLYLINE
  5
AD1
330
1F
100
AcDbEntity
  8
06___PRT_ALL_SURFS
  6
Continuous
 62
     7
100
AcDbPolyline
 90
        3
 70
     0
 43
0.0
 10
276.371896674847
 20
48.20313499253973
 10
277.0017291558469
 20
48.12689222563975
 10
277.920197180447
 20
48.02921582503985
  0
LINE
  5
AD2
330
1F
100
AcDbEntity
  8
02___PRT_ALL_AXES
  6
Continuous
 62
     7
100
AcDbLine
 10
184.0824230369469
 20
47.29954106393974
 30
0.0
 11
186.6303072884469
 21
18.17709080773979
 31
0.0
  0
LINE
  5
ADA
330
1F
100
AcDbEntity
  8
0
  6
Continuous
 62
     7
100
AcDbLine
 10
129.4197952828469
 20
60.04689654813979
 30
0.0
 11
130.5768145847469
 21
60.18638189223977
 31
0.0
  0
LWPOLYLINE
  5
ADB
330
1F
100
AcDbEntity
  8
0
  6
Continuous
 62
     7
100
AcDbPolyline
 90
        5
 70
     0
 43
0.0
 10
130.2458970947469
 20
60.14739859163979
 10
130.6662843686469
 20
60.19569153483975
 10
131.1155744762469
 20
60.23381144823975
 10
131.5525687921469
 20
60.25705512933974
 10
131.9764320075469
 20
60.26611413413981
  0
LINE
  5
ADD
330
1F
100
AcDbEntity
  8
0
  6
Continuous
 62
     7
100
AcDbLine
 10
130.5768145847469
 20
60.18638189223977
 30
0.0
 11
131.026396853047
 21
60.22733516083976
 31
0.0
  0
LWPOLYLINE
  5
AF9
330
1F
100
AcDbEntity
  8
0
  6
Continuous
 62
     7
100
AcDbPolyline
 90
        5
 70
     0
 43
0.0
 10
77.36032463004694
 20
84.23148740253976
 10
77.51041563944696
 20
84.2211889345398
 10
77.62944029694697
 20
84.21738814973981
 10
77.73382866334697
 20
84.2168848939398
 10
77.82541392124696
 20
84.21830658813975
  0
LWPOLYLINE
  5
AFA
330
1F
100
AcDbEntity
  8
06___PRT_ALL_SURFS
  6
Continuous
 62
     7
100
AcDbPolyline
 90
        3
 70
     0
 43
0.0
 10
314.590788356547
 20
59.8552712887397
 10
315.492926517347
 20
59.78442946163979
 10
316.7358371607469
 20
59.70194729503978
  0
LWPOLYLINE
  5
AFB
330
1F
100
AcDbEntity
  8
06___PRT_ALL_SURFS
  6
Continuous
 62
     7
100
AcDbPolyline
 90
        3
 70
     0
 43
0.0
 10
314.251038583147
 20
59.88471984093975
 10
315.097975356347
 20
59.81428612293986
 10
315.9267055525469
 20
59.7537353737397
  0
LINE
  5
AFC
330
1F
100
AcDbEntity
  8
06___PRT_ALL_SURFS
  6
Continuous
 62
     7
100
AcDbLine
 10
311.0328529645471
 20
60.22733516083976
 30
0.0
 11
311.4824352328469
 21
60.18638189223977
 31
0.0
  0
LINE
  5
AFD
330
1F
100
AcDbEntity
  8
06___PRT_ALL_SURFS
  6
Continuous
 62
     7
100
AcDbLine
 10
313.388717573047
 20
59.96644645723986
 30
0.0
 11
314.590788356547
 21
59.8552712887397
 31
0.0
  0
LINE
  5
AFE
330
1F
100
AcDbEntity
  8
06___PRT_ALL_SURFS
  6
Continuous
 62
     7
100
AcDbLine
 10
312.632170671047
 20
60.0484995718398
 30
0.0
 11
312.7330033282469
 21
60.03634103273977
 31
0.0
  0
LWPOLYLINE
  5
AFF
330
1F
100
AcDbEntity
  8
06___PRT_ALL_SURFS
  6
Continuous
 62
     7
100
AcDbPolyline
 90
        3
 70
     0
 43
0.0
 10
311.8133353482469
 20
60.14716267403982
 10
312.5128520089469
 20
60.06144056443975
 10
313.670061265147
 20
59.93848383573983
  0
LINE
  5
B24
330
1F
100
AcDbEntity
  8
0
  6
Continuous
 62
     7
100
AcDbLine
 10
78.18272301344695
 20
84.23471749113982
 30
0.0
 11
78.88441097384694
 21
84.27551985053971
 31
0.0
  0
LINE
  5
B25
330
1F
100
AcDbEntity
  8
0
  6
Continuous
 62
     7
100
AcDbLine
 10
78.88441097384694
 20
84.27551985053971
 30
0.0
 11
79.15137914474695
 21
84.2895141376397
 31
0.0
  0
LINE
  5
B26
330
1F
100
AcDbEntity
  8
0
  6
Continuous
 62
     7
100
AcDbLine
 10
78.03076007364693
 20
84.22668422013975
 30
0.0
 11
78.20388912754694
 21
84.23518563063977
 31
0.0
  0
LINE
  5
B27
330
1F
100
AcDbEntity
  8
0
  6
Continuous
 62
     7
100
AcDbLine
 10
79.13631607204695
 20
84.28753202053975
 30
0.0
 11
79.45539049094694
 21
84.30380776083975
 31
0.0
  0
LINE
  5
B28
330
1F
100
AcDbEntity
  8
0
  6
Continuous
 62
     7
100
AcDbLine
 10
77.95476706634694
 20
84.22323821383976
 30
0.0
 11
78.05371164794696
 21
84.22715765263969
 31
0.0
  0
LINE
  5
B29
330
1F
100
AcDbEntity
  8
0
  6
Continuous
 62
     7
100
AcDbLine
 10
79.41931845894697
 20
84.30090181023981
 30
0.0
 11
79.79878434704693
 21
84.31795704213984
 31
0.0
  0
LINE
  5
B2A
330
1F
100
AcDbEntity
  8
0
  6
Continuous
 62
     7
100
AcDbLine
 10
77.87872222674694
 20
84.22039229263978
 30
0.0
 11
77.97847088644696
 21
84.22362438473978
 31
0.0
  0
LINE
  5
B2B
330
1F
100
AcDbEntity
  8
0
  6
Continuous
 62
     7
100
AcDbLine
 10
79.73423714554695
 20
84.3140560769398
 30
0.0
 11
80.18342169664697
 21
84.3314904973397
 31
0.0
  0
LINE
  5
B2C
330
1F
100
AcDbEntity
  8
0
  6
Continuous
 62
     7
100
AcDbLine
 10
80.08161552464697
 20
84.32662805383975
 30
0.0
 11
80.46095883074693
 21
84.33823011243978
 31
0.0
  0
LINE
  5
B2D
330
1F
100
AcDbEntity
  8
0
  6
Continuous
 62
     7
100
AcDbLine
 10
80.39148864424694
 20
84.33786333483977
 30
0.0
 11
80.87320237214695
 21
84.34853664633978
 31
0.0
  0
LINE
  5
B2F
330
1F
100
AcDbEntity
  8
0
  6
Continuous
 62
     7
100
AcDbLine
 10
80.84024736584693
 20
84.34950896893976
 30
0.0
 11
81.31906054094693
 21
84.35721782303973
 31
0.0
  0
LINE
  5
B31
330
1F
100
AcDbEntity
  8
0
  6
Continuous
 62
     7
100
AcDbLine
 10
81.31906054094693
 20
84.35721782303973
 30
0.0
 11
81.87262888944696
 21
84.36670925393981
 31
0.0
  0
LINE
  5
B32
330
1F
100
AcDbEntity
  8
06___PRT_ALL_SURFS
  6
Continuous
 62
     7
100
AcDbLine
 10
354.529705917685
 20
84.32084862201405
 30
0.0
 11
357.265371875147
 21
84.36194529043985
 31
0.0
  0
LINE
  5
B35
330
1F
100
AcDbEntity
  8
0
  6
Continuous
 62
     7
100
AcDbLine
 10
81.79921245804697
 20
84.36398034933985
 30
0.0
 11
82.45756159694696
 21
84.3714913893398
 31
0.0
  0
LINE
  5
B36
330
1F
100
AcDbEntity
  8
06___PRT_ALL_SURFS
  6
Continuous
 62
     7
100
AcDbLine
 10
357.0409519873469
 20
84.3620008127398
 30
0.0
 11
358.135916473147
 21
84.37115603393978
 31
0.0
  0
LINE
  5
B39
330
1F
100
AcDbEntity
  8
06___PRT_ALL_SURFS
  6
Continuous
 62
     7
100
AcDbLine
 10
357.9877971987471
 20
84.36799628543978
 30
0.0
 11
358.8121182049469
 21
84.37327403563974
 31
0.0
  0
LINE
  5
B3A
330
1F
100
AcDbEntity
  8
0
  6
Continuous
 62
     7
100
AcDbLine
 10
82.31365112114692
 20
84.36860533593973
 30
0.0
 11
83.08843828974694
 21
84.37330771623978
 31
0.0
  0
LINE
  5
B45
330
1F
100
AcDbEntity
  8
06___PRT_ALL_SURFS
  6
Continuous
 62
     7
100
AcDbLine
 10
358.667852847147
 20
84.37088132793974
 30
0.0
 11
359.4445597621469
 21
84.37224948673977
 31
0.0
  0
LINE
  5
B46
330
1F
100
AcDbEntity
  8
0
  6
Continuous
 62
     7
100
AcDbLine
 10
82.86226886194695
 20
84.37091395313975
 30
0.0
 11
83.76527694704694
 21
84.37192144753977
 31
0.0
  0
LINE
  5
B47
330
1F
100
AcDbEntity
  8
06___PRT_ALL_SURFS
  6
Continuous
 62
     7
100
AcDbLine
 10
359.305102252647
 20
84.37065714043979
 30
0.0
 11
360.0332597786468
 21
84.36827618543977
 31
0.0
  0
LINE
  5
B49
330
1F
100
AcDbEntity
  8
0
  6
Continuous
 62
     7
100
AcDbLine
 10
83.76527694704694
 20
84.37192144753977
 30
0.0
 11
84.86556758604695
 21
84.36364204613985
 31
0.0
  0
LINE
  5
B4B
330
1F
100
AcDbEntity
  8
06___PRT_ALL_SURFS
  6
Continuous
 62
     7
100
AcDbLine
 10
359.8993691214468
 20
84.36748686353977
 30
0.0
 11
360.578166854647
 21
84.36161490103975
 31
0.0
  0
LINE
  5
B4C
330
1F
100
AcDbEntity
  8
0
  6
Continuous
 62
     7
100
AcDbLine
 10
84.71174102624695
 20
84.36276969193979
 30
0.0
 11
87.52489750904695
 21
84.3232830157398
 31
0.0
  0
LINE
  5
B4E
330
1F
100
AcDbEntity
  8
06___PRT_ALL_SURFS
  6
Continuous
 62
     7
100
AcDbLine
 10
360.450420939047
 20
84.36159920263971
 30
0.0
 11
360.9583512771469
 21
84.35327605023976
 31
0.0
  0
LINE
  5
B50
330
1F
100
AcDbEntity
  8
06___PRT_ALL_SURFS
  6
Continuous
 62
     7
100
AcDbLine
 10
360.834267403147
 20
84.35737157023972
 30
0.0
 11
361.423714726147
 21
84.34287528253982
 31
0.0
  0
LWPOLYLINE
  5
B52
330
1F
100
AcDbEntity
  8
06___PRT_ALL_SURFS
  6
Continuous
 62
     7
100
AcDbPolyline
 90
       19
 70
     0
 43
0.0
 10
364.158675209547
 20
84.22113613713976
 10
364.2379131093469
 20
84.21877326623976
 10
364.329274640647
 20
84.2173746520398
 10
364.4318026686469
 20
84.21788307033979
 10
364.547725393647
 20
84.22154434173981
 10
364.6929013174469
 20
84.23130202523976
 10
364.8741075899469
 20
84.2522710001398
 10
365.0845703297469
 20
84.28975372233971
 10
365.3193547928469
 20
84.34937255593981
 10
365.580149194647
 20
84.4394190076397
 10
365.858458792247
 20
84.56622849083975
 10
366.1338458379469
 20
84.72770950443978
 10
366.398211638447
 20
84.92345969303974
 10
366.649340159847
 20
85.15671819093972
 10
366.8776208794469
 20
85.42379893763975
 10
367.0770571239468
 20
85.72203755403986
 10
367.243101519847
 20
86.04984413983972
 10
367.369979269047
 20
86.40217782543983
 10
367.413030181947
 20
86.56723574713977
  0
LINE
  5
B53
330
1F
100
AcDbEntity
  8
06___PRT_ALL_SURFS
  6
Continuous
 62
     7
100
AcDbLine
 10
361.3139406750469
 20
84.3472751713398
 30
0.0
 11
361.847711583147
 21
84.33084205423972
 31
0.0
  0
LWPOLYLINE
  5
B54
330
1F
100
AcDbEntity
  8
06___PRT_ALL_SURFS
  6
Continuous
 62
     7
100
AcDbPolyline
 90
        6
 70
     0
 43
0.0
 10
364.1144621132468
 20
84.2222047140398
 10
364.1927890685469
 20
84.21941851173974
 10
364.279880875447
 20
84.21739460393975
 10
364.374299809147
 20
84.21681512813973
 10
364.478907869147
 20
84.21851504513973
 10
364.536686576147
 20
84.22119569473981
  0
LINE
  5
B55
330
1F
100
AcDbEntity
  8
06___PRT_ALL_SURFS
  6
Continuous
 62
     7
100
AcDbLine
 10
361.7510548164468
 20
84.33538902013969
 30
0.0
 11
362.231513975147
 21
84.31763278633981
 31
0.0
  0
LINE
  5
B56
330
1F
100
AcDbEntity
  8
06___PRT_ALL_SURFS
  6
Continuous
 62
     7
100
AcDbLine
 10
362.147167083347
 20
84.3221885114398
 30
0.0
 11
363.790467495247
 21
84.23889063003981
 31
0.0
  0
LINE
  5
B57
330
1F
100
AcDbEntity
  8
06___PRT_ALL_SURFS
  6
Continuous
 62
     7
100
AcDbLine
 10
364.0363784743469
 20
84.22565659673979
 30
0.0
 11
364.158675209547
 21
84.22113613713976
 31
0.0
  0
LINE
  5
B59
330
1F
100
AcDbEntity
  8
06___PRT_ALL_SURFS
  6
Continuous
 62
     7
100
AcDbLine
 10
363.9564844739468
 20
84.22966623313973
 30
0.0
 11
364.080937278447
 21
84.22425090663979
 31
0.0
  0
LINE
  5
B5B
330
1F
100
AcDbEntity
  8
06___PRT_ALL_SURFS
  6
Continuous
 62
     7
100
AcDbLine
 10
363.790467495247
 20
84.23889063003981
 30
0.0
 11
364.002129290147
 21
84.22798612003978
 31
0.0
  0
LINE
  5
B93
330
1F
100
AcDbEntity
  8
06___PRT_ALL_SURFS
  6
Continuous
 62
     7
100
AcDbLine
 10
426.029624908847
 20
179.8137001898397
 30
0.0
 11
426.0166154842468
 21
179.8096309251398
 31
0.0
  0
LINE
  5
B94
330
1F
100
AcDbEntity
  8
0
  6
Continuous
 62
     7
100
AcDbLine
 10
422.7296249088469
 20
106.6128695215398
 30
0.0
 11
19.32962490884694
 21
106.6128695215398
 31
0.0
  0
LINE
  5
B95
330
1F
100
AcDbEntity
  8
0
  6
Continuous
 62
     7
100
AcDbLine
 10
17.79274008144696
 20
108.1128695215398
 30
0.0
 11
424.2662452045469
 21
108.1128695215398
 31
0.0
  0
LWPOLYLINE
  5
B96
330
1F
100
AcDbEntity
  8
0
  6
Continuous
 62
     7
100
AcDbPolyline
 90
        8
 70
     0
 43
0.0
 10
61.65089852694698
 20
106.5780869587397
 10
61.69822054174696
 20
106.5754399303398
 10
62.35918390084695
 20
106.4635800263397
 10
63.00361040594694
 20
106.2786628876397
 10
63.62344774024695
 20
106.0229745127398
 10
64.21094598484697
 20
105.6996862338398
 10
64.75875479964696
 20
105.3128160126397
 10
65.26001653004692
 20
104.8671783118398
  0
LINE
  5
BB1
330
1F
100
AcDbEntity
  8
0
  6
Continuous
 62
     7
100
AcDbLine
 10
16.02962490884695
 20
179.8137001898397
 30
0.0
 11
16.04263433334697
 21
179.8096309251398
 31
0.0
  0
LINE
  5
BCF
330
1F
100
AcDbEntity
  8
02___PRT_ALL_AXES
  6
Continuous
 62
     7
100
AcDbLine
 10
257.976826780747
 20
47.29954106393974
 30
0.0
 11
255.428942529147
 21
18.17709080773979
 31
0.0
  0
LINE
  5
BDB
330
1F
100
AcDbEntity
  8
06___PRT_ALL_SURFS
  6
Continuous
 62
     7
100
AcDbLine
 10
293.716119235947
 20
50.29602854093981
 30
0.0
 11
293.717299575947
 21
50.29087418403982
 31
0.0
  0
LINE
  5
BDC
330
1F
100
AcDbEntity
  8
06___PRT_ALL_SURFS
  6
Continuous
 62
     7
100
AcDbLine
 10
295.1067296135469
 20
54.11819781403984
 30
0.0
 11
295.1068009703469
 21
54.10849788923975
 31
0.0
  0
LINE
  5
BDE
330
1F
100
AcDbEntity
  8
06___PRT_ALL_SURFS
  6
Continuous
 62
     7
100
AcDbLine
 10
297.899261489847
 20
57.02083537353975
 30
0.0
 11
298.4517854271469
 21
57.2116970544397
 31
0.0
  0
LINE
  5
BDF
330
1F
100
AcDbEntity
  8
0
  6
Continuous
 62
     7
100
AcDbLine
 10
64.89352917104696
 20
179.8101861862398
 30
0.0
 11
376.029624908847
 21
179.8137001898397
 31
0.0
  0
LINE
  5
BE0
330
1F
100
AcDbEntity
  8
06___PRT_ALL_SURFS
  6
Continuous
 62
     7
100
AcDbLine
 10
377.1657206466471
 20
179.8101861862398
 30
0.0
 11
376.029624908847
 21
179.8137001898397
 31
0.0
  0
LWPOLYLINE
  5
BE2
330
1F
100
AcDbEntity
  8
06___PRT_ALL_SURFS
  6
Continuous
 62
     7
100
AcDbPolyline
 90
        6
 70
     0
 43
0.0
 10
298.6175469536469
 20
57.26499896613987
 10
298.6169749024469
 20
57.26120331193978
 10
298.617063984547
 20
57.25835386123971
 10
298.6173736142468
 20
57.25643708353985
 10
298.6174945768468
 20
57.2554183920397
 10
298.617462328747
 20
57.25524476893976
  0
LINE
  5
BE3
330
1F
100
AcDbEntity
  8
06___PRT_ALL_SURFS
  6
Continuous
 62
     7
100
AcDbLine
 10
293.7150650875469
 20
50.29345588343971
 30
0.0
 11
293.714778032747
 21
50.29249458903986
 31
0.0
  0
LINE
  5
BE4
330
1F
100
AcDbEntity
  8
06___PRT_ALL_SURFS
  6
Continuous
 62
     7
100
AcDbLine
 10
293.7171490560469
 20
50.29046063373971
 30
0.0
 11
295.1067910721469
 21
54.10847069433977
 31
0.0
  0
LINE
  5
BE5
330
1F
100
AcDbEntity
  8
06___PRT_ALL_SURFS
  6
Continuous
 62
     7
100
AcDbLine
 10
293.659230970447
 20
50.1408155982398
 30
0.0
 11
293.663820401547
 21
50.15333726953976
 31
0.0
  0
LWPOLYLINE
  5
BE6
330
1F
100
AcDbEntity
  8
06___PRT_ALL_SURFS
  6
Continuous
 62
     7
100
AcDbPolyline
 90
        4
 70
     0
 43
0.0
 10
295.1067918451471
 20
54.1084704141398
 10
295.131707218847
 20
54.17543233383981
 10
295.3695657135469
 20
54.70589239593972
 10
295.6672511403469
 20
55.20486747853978
  0
LINE
  5
BE7
330
1F
100
AcDbEntity
  8
06___PRT_ALL_SURFS
  6
Continuous
 62
     7
100
AcDbLine
 10
293.715557140147
 20
50.29451881253978
 30
0.0
 11
293.716119235947
 21
50.29602854093981
 31
0.0
  0
LINE
  5
BE8
330
1F
100
AcDbEntity
  8
06___PRT_ALL_SURFS
  6
Continuous
 62
     7
100
AcDbLine
 10
293.610857795447
 20
50.01769747873971
 30
0.0
 11
293.659112058447
 21
50.14085946603974
 31
0.0
  0
LWPOLYLINE
  5
BE9
330
1F
100
AcDbEntity
  8
06___PRT_ALL_SURFS
  6
Continuous
 62
     7
100
AcDbPolyline
 90
        3
 70
     0
 43
0.0
 10
293.668369751447
 20
50.16582881103978
 10
293.6850237548469
 20
50.20615925013977
 10
293.711544623047
 20
50.2751876873398
  0
LINE
  5
BEA
330
1F
100
AcDbEntity
  8
06___PRT_ALL_SURFS
  6
Continuous
 62
     7
100
AcDbLine
 10
295.6672511403469
 20
55.20486747853978
 30
0.0
 11
296.0216542237469
 21
55.66698798733979
 31
0.0
  0
LWPOLYLINE
  5
BEB
330
1F
100
AcDbEntity
  8
06___PRT_ALL_SURFS
  6
Continuous
 62
     7
100
AcDbPolyline
 90
        3
 70
     0
 43
0.0
 10
296.0221775997468
 20
55.66767019833971
 10
296.428313673847
 20
56.08568140373974
 10
296.880662854347
 20
56.45383034623979
  0
LWPOLYLINE
  5
BEC
330
1F
100
AcDbEntity
  8
06___PRT_ALL_SURFS
  6
Continuous
 62
     7
100
AcDbPolyline
 90
        3
 70
     0
 43
0.0
 10
296.880662854347
 20
56.45383034623979
 10
297.373184803347
 20
56.76701191213978
 10
297.899261489847
 20
57.02083537353975
  0
LINE
  5
BEE
330
1F
100
AcDbEntity
  8
0
  6
Continuous
 62
     7
100
AcDbLine
 10
20.67107591844695
 20
189.0068837315398
 30
0.0
 11
20.92381643934695
 21
189.0098400079398
 31
0.0
  0
LWPOLYLINE
  5
BEF
330
1F
100
AcDbEntity
  8
0
  6
Continuous
 62
     7
100
AcDbPolyline
 90
        4
 70
     0
 43
0.0
 10
21.88146807444696
 20
189.0132626224398
 10
21.34426678964695
 20
189.0094217916397
 10
21.02452072904694
 20
189.0044972643396
 10
20.92893966034694
 20
189.0007982379396
  0
LINE
  5
BF0
330
1F
100
AcDbEntity
  8
0
  6
Continuous
 62
     7
100
AcDbLine
 10
375.7359236068468
 20
189.0107334639397
 30
0.0
 11
21.88146807444696
 21
189.0132626224398
 31
0.0
  0
LWPOLYLINE
  5
BF1
330
1F
100
AcDbEntity
  8
06___PRT_ALL_SURFS
  6
Continuous
 62
     7
100
AcDbPolyline
 90
        3
 70
     0
 43
0.0
 10
420.7149704196469
 20
189.0094219276398
 10
420.177752724447
 20
189.0132627454397
 10
375.7194382048471
 20
189.0016568397396
  0
LINE
  5
BF2
330
1F
100
AcDbEntity
  8
06___PRT_ALL_SURFS
  6
Continuous
 62
     7
100
AcDbLine
 10
421.3881622381468
 20
189.0068842624397
 30
0.0
 11
421.1354382040468
 21
189.0098401120398
 31
0.0
  0
LWPOLYLINE
  5
BF3
330
1F
100
AcDbEntity
  8
06___PRT_ALL_SURFS
  6
Continuous
 62
     7
100
AcDbPolyline
 90
        3
 70
     0
 43
0.0
 10
421.130314994347
 20
189.0007981476398
 10
421.0347283449469
 20
189.0044972941396
 10
420.7149704196469
 20
189.0094219276398
  0
LWPOLYLINE
  5
BF5
330
1F
100
AcDbEntity
  8
06___PRT_ALL_SURFS
  6
Continuous
 62
     7
100
AcDbPolyline
 90
        4
 70
     0
 43
0.0
 10
292.8535659560468
 20
48.90673389093979
 10
293.150325798847
 20
49.23482847633978
 10
293.4094163235469
 20
49.61335020613979
 10
293.610857795447
 20
50.01769747873971
  0
LINE
  5
BF6
330
1F
100
AcDbEntity
  8
06___PRT_ALL_SURFS
  6
Continuous
 62
     7
100
AcDbLine
 10
292.5294602375469
 20
48.62934097983977
 30
0.0
 11
292.8535659560468
 21
48.90673389093979
 31
0.0
  0
LINE
  5
BF7
330
1F
100
AcDbEntity
  8
06___PRT_ALL_SURFS
  6
Continuous
 62
     7
100
AcDbLine
 10
353.816137196547
 20
83.7691003870398
 30
0.0
 11
354.534380813547
 21
84.32330561833977
 31
0.0
  0
LINE
  5
BF8
330
1F
100
AcDbEntity
  8
06___PRT_ALL_SURFS
  6
Continuous
 62
     7
100
AcDbLine
 10
353.238871771247
 20
83.32825418553978
 30
0.0
 11
353.816137196547
 21
83.7691003870398
 31
0.0
  0
LINE
  5
BF9
330
1F
100
AcDbEntity
  8
06___PRT_ALL_SURFS
  6
Continuous
 62
     7
100
AcDbLine
 10
352.6463221628469
 20
82.87995788713978
 30
0.0
 11
353.238871771247
 21
83.32825418553978
 31
0.0
  0
LINE
  5
BFA
330
1F
100
AcDbEntity
  8
06___PRT_ALL_SURFS
  6
Continuous
 62
     7
100
AcDbLine
 10
352.073135937047
 20
82.45036250853981
 30
0.0
 11
352.6463221628469
 21
82.87995788713978
 31
0.0
  0
LINE
  5
BFB
330
1F
100
AcDbEntity
  8
06___PRT_ALL_SURFS
  6
Continuous
 62
     7
100
AcDbLine
 10
351.4849821907469
 20
82.01367214823985
 30
0.0
 11
352.073135937047
 21
82.45036250853981
 31
0.0
  0
LINE
  5
BFC
330
1F
100
AcDbEntity
  8
06___PRT_ALL_SURFS
  6
Continuous
 62
     7
100
AcDbLine
 10
350.9137055971469
 20
81.59349222173979
 30
0.0
 11
351.4849821907469
 21
82.01367214823985
 31
0.0
  0
LINE
  5
BFD
330
1F
100
AcDbEntity
  8
06___PRT_ALL_SURFS
  6
Continuous
 62
     7
100
AcDbLine
 10
350.327440819047
 20
81.16634244933981
 30
0.0
 11
350.9137055971469
 21
81.59349222173979
 31
0.0
  0
LINE
  5
BFE
330
1F
100
AcDbEntity
  8
06___PRT_ALL_SURFS
  6
Continuous
 62
     7
100
AcDbLine
 10
349.7576171275468
 20
80.75508450963981
 30
0.0
 11
350.327440819047
 21
81.16634244933981
 31
0.0
  0
LINE
  5
BFF
330
1F
100
AcDbEntity
  8
06___PRT_ALL_SURFS
  6
Continuous
 62
     7
100
AcDbLine
 10
349.174726820647
 20
80.33836477023978
 30
0.0
 11
349.7576171275468
 21
80.75508450963981
 31
0.0
  0
LINE
  5
C00
330
1F
100
AcDbEntity
  8
06___PRT_ALL_SURFS
  6
Continuous
 62
     7
100
AcDbLine
 10
348.608310935547
 20
79.93724767363985
 30
0.0
 11
349.174726820647
 21
80.33836477023978
 31
0.0
  0
LINE
  5
C01
330
1F
100
AcDbEntity
  8
06___PRT_ALL_SURFS
  6
Continuous
 62
     7
100
AcDbLine
 10
348.030457680647
 20
79.53189593173978
 30
0.0
 11
348.608310935547
 21
79.93724767363985
 31
0.0
  0
LINE
  5
C02
330
1F
100
AcDbEntity
  8
06___PRT_ALL_SURFS
  6
Continuous
 62
     7
100
AcDbLine
 10
347.4573235882468
 20
79.13367426783977
 30
0.0
 11
348.030457680647
 21
79.53189593173978
 31
0.0
  0
LINE
  5
C03
330
1F
100
AcDbEntity
  8
06___PRT_ALL_SURFS
  6
Continuous
 62
     7
100
AcDbLine
 10
346.9001111188469
 20
78.75019545333977
 30
0.0
 11
347.4696061293469
 21
79.14218528473977
 31
0.0
  0
LINE
  5
C04
330
1F
100
AcDbEntity
  8
06___PRT_ALL_SURFS
  6
Continuous
 62
     7
100
AcDbLine
 10
346.3457434944469
 20
78.3721916144398
 30
0.0
 11
346.912088943747
 21
78.75838391403978
 31
0.0
  0
LINE
  5
C05
330
1F
100
AcDbEntity
  8
06___PRT_ALL_SURFS
  6
Continuous
 62
     7
100
AcDbLine
 10
345.792051625547
 20
77.99820450083974
 30
0.0
 11
346.3489136666471
 21
78.37436045053973
 31
0.0
  0
LINE
  5
C06
330
1F
100
AcDbEntity
  8
06___PRT_ALL_SURFS
  6
Continuous
 62
     7
100
AcDbLine
 10
345.234396293747
 20
77.62506562873979
 30
0.0
 11
345.792051625547
 21
77.99820450083974
 31
0.0
  0
LINE
  5
C07
330
1F
100
AcDbEntity
  8
06___PRT_ALL_SURFS
  6
Continuous
 62
     7
100
AcDbLine
 10
343.596979494147
 20
76.54985603293984
 30
0.0
 11
345.249064969147
 21
77.63481996883982
 31
0.0
  0
LINE
  5
C08
330
1F
100
AcDbEntity
  8
06___PRT_ALL_SURFS
  6
Continuous
 62
     7
100
AcDbLine
 10
335.340661368047
 20
71.53421251643978
 30
0.0
 11
335.7255224668469
 21
71.7741651614398
 31
0.0
  0
LINE
  5
C09
330
1F
100
AcDbEntity
  8
0
  6
Continuous
 62
     7
100
AcDbLine
 10
20.67514574514695
 20
188.9878660970398
 30
0.0
 11
20.47369598314694
 21
188.9660008213398
 31
0.0
  0
LINE
  5
C0A
330
1F
100
AcDbEntity
  8
06___PRT_ALL_SURFS
  6
Continuous
 62
     7
100
AcDbLine
 10
333.420288759547
 20
68.97909706203974
 30
0.0
 11
333.420438201647
 21
68.96075325413973
 31
0.0
  0
LINE
  5
C0C
330
1F
100
AcDbEntity
  8
06___PRT_ALL_SURFS
  6
Continuous
 62
     7
100
AcDbLine
 10
331.262980525547
 20
62.33771884203975
 30
0.0
 11
331.2626541293469
 21
62.31977673803978
 31
0.0
  0
LINE
  5
C0D
330
1F
100
AcDbEntity
  8
06___PRT_ALL_SURFS
  6
Continuous
 62
     7
100
AcDbLine
 10
335.726075518747
 20
71.79290729673972
 30
0.0
 11
335.7255238292469
 21
71.77416938083969
 31
0.0
  0
LINE
  5
C0E
330
1F
100
AcDbEntity
  8
06___PRT_ALL_SURFS
  6
Continuous
 62
     7
100
AcDbLine
 10
331.262654127947
 20
62.31977673363974
 30
0.0
 11
331.262660040847
 21
62.31989745333978
 31
0.0
  0
LINE
  5
C0F
330
1F
100
AcDbEntity
  8
06___PRT_ALL_SURFS
  6
Continuous
 62
     7
100
AcDbLine
 10
331.2634094961469
 20
62.33923066273975
 30
0.0
 11
331.262980525547
 21
62.33771884203975
 31
0.0
  0
LINE
  5
C10
330
1F
100
AcDbEntity
  8
06___PRT_ALL_SURFS
  6
Continuous
 62
     7
100
AcDbLine
 10
331.2626577903468
 20
62.31978800553976
 30
0.0
 11
333.420437125147
 21
68.96074994103982
 31
0.0
  0
LINE
  5
C11
330
1F
100
AcDbEntity
  8
06___PRT_ALL_SURFS
  6
Continuous
 62
     7
100
AcDbLine
 10
331.212495651647
 20
62.18342042413976
 30
0.0
 11
331.216539813447
 21
62.19577493233977
 31
0.0
  0
LWPOLYLINE
  5
C12
330
1F
100
AcDbEntity
  8
06___PRT_ALL_SURFS
  6
Continuous
 62
     7
100
AcDbPolyline
 90
        8
 70
     0
 43
0.0
 10
333.420438359847
 20
68.96074953833978
 10
333.5447101499469
 20
69.30080091423976
 10
333.748769632147
 20
69.73990683133982
 10
333.994358597647
 20
70.15723509273971
 10
334.279178063647
 20
70.54886637963979
 10
334.6005607758469
 20
70.91112301863986
 10
334.955496994547
 20
71.24060348523973
 10
335.340661368047
 20
71.53421251643978
  0
LWPOLYLINE
  5
C13
330
1F
100
AcDbEntity
  8
06___PRT_ALL_SURFS
  6
Continuous
 62
     7
100
AcDbPolyline
 90
        6
 70
     0
 43
0.0
 10
331.1921628850468
 20
62.12586085703982
 10
331.2078072025469
 20
62.16544580183985
 10
331.223812866147
 20
62.20781197303974
 10
331.239059256847
 20
62.25008019063979
 10
331.2535579518469
 20
62.29223555523971
 10
331.262657827047
 20
62.31978799323974
  0
LWPOLYLINE
  5
C14
330
1F
100
AcDbEntity
  8
06___PRT_ALL_SURFS
  6
Continuous
 62
     7
100
AcDbPolyline
 90
        4
 70
     0
 43
0.0
 10
330.630674969747
 20
61.12178236073977
 10
330.916522190147
 20
61.53186333133978
 10
331.134836242947
 20
61.9725043505398
 10
331.184109986247
 20
62.10623837923982
  0
LINE
  5
C15
330
1F
100
AcDbEntity
  8
06___PRT_ALL_SURFS
  6
Continuous
 62
     7
100
AcDbLine
 10
370.6811031883471
 20
98.48352516283981
 30
0.0
 11
370.744522239347
 21
98.56069687983977
 31
0.0
  0
LINE
  5
C16
330
1F
100
AcDbEntity
  8
06___PRT_ALL_SURFS
  6
Continuous
 62
     7
100
AcDbLine
 10
370.711721860247
 20
98.5341502371398
 30
0.0
 11
370.842671304447
 21
98.68656261863977
 31
0.0
  0
LINE
  5
C17
330
1F
100
AcDbEntity
  8
06___PRT_ALL_SURFS
  6
Continuous
 62
     7
100
AcDbLine
 10
370.8098444992469
 20
98.63701481593979
 30
0.0
 11
370.8770293544469
 21
98.71238157763968
 31
0.0
  0
LINE
  5
C18
330
1F
100
AcDbEntity
  8
06___PRT_ALL_SURFS
  6
Continuous
 62
     7
100
AcDbLine
 10
370.8534320675469
 20
98.69908709743985
 30
0.0
 11
370.987695395647
 21
98.8427809305398
 31
0.0
  0
LINE
  5
C19
330
1F
100
AcDbEntity
  8
06___PRT_ALL_SURFS
  6
Continuous
 62
     7
100
AcDbLine
 10
375.924223022047
 20
103.9342274793398
 30
0.0
 11
376.616350874147
 21
104.6771720679397
 31
0.0
  0
LINE
  5
C1A
330
1F
100
AcDbEntity
  8
06___PRT_ALL_SURFS
  6
Continuous
 62
     7
100
AcDbLine
 10
375.2509896796469
 20
103.2185749677397
 30
0.0
 11
375.924223022047
 21
103.9342274793398
 31
0.0
  0
LINE
  5
C1B
330
1F
100
AcDbEntity
  8
06___PRT_ALL_SURFS
  6
Continuous
 62
     7
100
AcDbLine
 10
374.5932712270469
 20
102.5260376724398
 30
0.0
 11
375.2509896796469
 21
103.2185749677397
 31
0.0
  0
LINE
  5
C1C
330
1F
100
AcDbEntity
  8
06___PRT_ALL_SURFS
  6
Continuous
 62
     7
100
AcDbLine
 10
373.9476537562469
 20
101.8525589605398
 30
0.0
 11
374.5932712270469
 21
102.5260376724398
 31
0.0
  0
LWPOLYLINE
  5
C1D
330
1F
100
AcDbEntity
  8
0
  6
Continuous
 62
     7
100
AcDbPolyline
 90
        9
 70
     0
 43
0.0
 10
376.629615434047
 20
104.6914824264397
 10
376.799265512747
 20
104.8672099287397
 10
377.3005245553469
 20
105.3128390945397
 10
377.8483296139468
 20
105.6997020664397
 10
378.435823310247
 20
106.0229844598398
 10
379.0556555757469
 20
106.2786683426398
 10
379.700076755547
 20
106.4635823691398
 10
380.361034783747
 20
106.5754404860397
 10
380.408546938647
 20
106.5780981303397
  0
LINE
  5
C1E
330
1F
100
AcDbEntity
  8
06___PRT_ALL_SURFS
  6
Continuous
 62
     7
100
AcDbLine
 10
370.946072424847
 20
98.7867459148398
 30
0.0
 11
371.0169679821469
 21
98.86005611213981
 31
0.0
  0
LINE
  5
C1F
330
1F
100
AcDbEntity
  8
06___PRT_ALL_SURFS
  6
Continuous
 62
     7
100
AcDbLine
 10
373.3107015032469
 20
101.1942069608398
 30
0.0
 11
373.9476537562469
 21
101.8525589605398
 31
0.0
  0
LINE
  5
C20
330
1F
100
AcDbEntity
  8
06___PRT_ALL_SURFS
  6
Continuous
 62
     7
100
AcDbLine
 10
372.678918833047
 20
100.5471286067397
 30
0.0
 11
373.3107015032469
 21
101.1942069608398
 31
0.0
  0
LINE
  5
C21
330
1F
100
AcDbEntity
  8
06___PRT_ALL_SURFS
  6
Continuous
 62
     7
100
AcDbLine
 10
370.987695395647
 20
98.8427809305398
 30
0.0
 11
371.0438238325468
 21
98.89958323383977
 31
0.0
  0
LINE
  5
C22
330
1F
100
AcDbEntity
  8
06___PRT_ALL_SURFS
  6
Continuous
 62
     7
100
AcDbLine
 10
372.049851915147
 20
99.9086593147398
 30
0.0
 11
372.678918833047
 21
100.5471286067397
 31
0.0
  0
LINE
  5
C23
330
1F
100
AcDbEntity
  8
06___PRT_ALL_SURFS
  6
Continuous
 62
     7
100
AcDbLine
 10
371.4233188976469
 20
99.27850277243978
 30
0.0
 11
372.049851915147
 21
99.9086593147398
 31
0.0
  0
LINE
  5
C24
330
1F
100
AcDbEntity
  8
06___PRT_ALL_SURFS
  6
Continuous
 62
     7
100
AcDbLine
 10
371.0438298127469
 20
98.89958907463974
 30
0.0
 11
371.4233188976469
 21
99.27850277243978
 31
0.0
  0
LWPOLYLINE
  5
C29
330
1F
100
AcDbEntity
  8
0
  6
Continuous
 62
     7
100
AcDbPolyline
 90
        4
 70
     0
 43
0.0
 10
20.25108341754696
 20
188.9297652343398
 10
20.03612822844695
 20
188.8825452337398
 10
19.82576129174697
 20
188.8243197461397
 10
19.69247906514695
 20
188.7810125088398
  0
LINE
  5
C2A
330
1F
100
AcDbEntity
  8
0
  6
Continuous
 62
     7
100
AcDbLine
 10
20.47369598314694
 20
188.9660008213398
 30
0.0
 11
20.25108341754696
 21
188.9297652343398
 31
0.0
  0
LINE
  5
C2F
330
1F
100
AcDbEntity
  8
06___PRT_ALL_SURFS
  6
Continuous
 62
     7
100
AcDbLine
 10
370.174446831147
 20
97.73385821123977
 30
0.0
 11
370.2896905942469
 21
97.93519518383973
 31
0.0
  0
LINE
  5
C30
330
1F
100
AcDbEntity
  8
06___PRT_ALL_SURFS
  6
Continuous
 62
     7
100
AcDbLine
 10
370.2999017168469
 20
97.95303455713977
 30
0.0
 11
370.433478010647
 21
98.1614658144397
 31
0.0
  0
LWPOLYLINE
  5
C32
330
1F
100
AcDbEntity
  8
06___PRT_ALL_SURFS
  6
Continuous
 62
     7
100
AcDbPolyline
 90
        5
 70
     0
 43
0.0
 10
370.392671776247
 20
98.08697162863985
 10
370.4465203642469
 20
98.1674873613398
 10
370.5022832135469
 20
98.24745712823984
 10
370.5599692897469
 20
98.3268294879398
 10
370.6195863183469
 20
98.40555211113978
  0
LINE
  5
C33
330
1F
100
AcDbEntity
  8
06___PRT_ALL_SURFS
  6
Continuous
 62
     7
100
AcDbLine
 10
370.433478010647
 20
98.1614658144397
 30
0.0
 11
370.570960704447
 21
98.35467160973989
 31
0.0
  0
LINE
  5
C34
330
1F
100
AcDbEntity
  8
06___PRT_ALL_SURFS
  6
Continuous
 62
     7
100
AcDbLine
 10
370.570960704447
 20
98.35467160973989
 30
0.0
 11
370.704524619447
 21
98.52497333823976
 31
0.0
  0
LWPOLYLINE
  5
C38
330
1F
100
AcDbEntity
  8
06___PRT_ALL_SURFS
  6
Continuous
 62
     7
100
AcDbPolyline
 90
        6
 70
     0
 43
0.0
 10
422.366766344747
 20
188.7810140259398
 10
422.2334811954469
 20
188.8243219886397
 10
422.0231150506468
 20
188.8825468561396
 10
421.8081604072469
 20
188.9297663819396
 10
421.5855479374469
 20
188.9660016141396
 10
421.384092338347
 20
188.9878670726398
  0
LINE
  5
C39
330
1F
100
AcDbEntity
  8
06___PRT_ALL_SURFS
  6
Continuous
 62
     7
100
AcDbLine
 10
369.7044421811469
 20
96.48893085053977
 30
0.0
 11
369.7044239799469
 21
96.48941242093977
 31
0.0
  0
LINE
  5
C3A
330
1F
100
AcDbEntity
  8
06___PRT_ALL_SURFS
  6
Continuous
 62
     7
100
AcDbLine
 10
369.703573094147
 20
96.48480921703985
 30
0.0
 11
369.7037134200468
 21
96.4724970461398
 31
0.0
  0
LINE
  5
C3C
330
1F
100
AcDbEntity
  8
06___PRT_ALL_SURFS
  6
Continuous
 62
     7
100
AcDbLine
 10
369.704225566247
 20
96.48763538423979
 30
0.0
 11
369.7044421811469
 21
96.48893085053977
 31
0.0
  0
LINE
  5
C3D
330
1F
100
AcDbEntity
  8
06___PRT_ALL_SURFS
  6
Continuous
 62
     7
100
AcDbLine
 10
367.3814769352469
 20
86.41378573793977
 30
0.0
 11
369.703544558347
 21
96.48834980123979
 31
0.0
  0
LINE
  5
C3F
330
1F
100
AcDbEntity
  8
06___PRT_ALL_SURFS
  6
Continuous
 62
     7
100
AcDbLine
 10
369.7037134634471
 20
96.47249079773978
 30
0.0
 11
369.7209240877469
 21
96.54459532873978
 31
0.0
  0
LINE
  5
C40
330
1F
100
AcDbEntity
  8
06___PRT_ALL_SURFS
  6
Continuous
 62
     7
100
AcDbLine
 10
369.704225402347
 20
96.48763576223986
 30
0.0
 11
369.757930282047
 21
96.69904610213976
 31
0.0
  0
LWPOLYLINE
  5
C42
330
1F
100
AcDbEntity
  8
06___PRT_ALL_SURFS
  6
Continuous
 62
     7
100
AcDbPolyline
 90
        3
 70
     0
 43
0.0
 10
369.7408718421469
 20
96.6227860330397
 10
369.7623738421469
 20
96.70169363183985
 10
369.7854469184469
 20
96.7811860424398
  0
LINE
  5
C44
330
1F
100
AcDbEntity
  8
06___PRT_ALL_SURFS
  6
Continuous
 62
     7
100
AcDbLine
 10
369.757930282047
 20
96.69904610213976
 30
0.0
 11
369.8410248032469
 21
96.9686726287397
 31
0.0
  0
LINE
  5
C45
330
1F
100
AcDbEntity
  8
06___PRT_ALL_SURFS
  6
Continuous
 62
     7
100
AcDbLine
 10
369.703509054447
 20
96.4853944312397
 30
0.0
 11
369.7042244414469
 21
96.48763051593974
 31
0.0
  0
LWPOLYLINE
  5
C46
330
1F
100
AcDbEntity
  8
06___PRT_ALL_SURFS
  6
Continuous
 62
     7
100
AcDbPolyline
 90
        5
 70
     0
 43
0.0
 10
369.810127760647
 20
96.86121478783981
 10
369.836460599447
 20
96.94175590723979
 10
369.8644654604469
 20
97.02271390053979
 10
369.8941791736469
 20
97.10404930773977
 10
369.925638155647
 20
97.18572127693974
  0
LWPOLYLINE
  5
C47
330
1F
100
AcDbEntity
  8
06___PRT_ALL_SURFS
  6
Continuous
 62
     7
100
AcDbPolyline
 90
        3
 70
     0
 43
0.0
 10
369.8410248032469
 20
96.9686726287397
 10
369.9453907924469
 20
97.24834210643976
 10
369.9969558429469
 20
97.37018588773985
  0
LINE
  5
C48
330
1F
100
AcDbEntity
  8
06___PRT_ALL_SURFS
  6
Continuous
 62
     7
100
AcDbLine
 10
369.925638155647
 20
97.18572127693974
 30
0.0
 11
369.9588552417469
 21
97.26763193113985
 31
0.0
  0
LINE
  5
C49
330
1F
100
AcDbEntity
  8
06___PRT_ALL_SURFS
  6
Continuous
 62
     7
100
AcDbLine
 10
369.9965422830469
 20
97.36924339303973
 30
0.0
 11
369.9917071746469
 21
97.35818493243973
 31
0.0
  0
LWPOLYLINE
  5
C4A
330
1F
100
AcDbEntity
  8
06___PRT_ALL_SURFS
  6
Continuous
 62
     7
100
AcDbPolyline
 90
        9
 70
     0
 43
0.0
 10
369.993862724847
 20
97.34973836693974
 10
370.0306922209471
 20
97.4319961735398
 10
370.0693486459471
 20
97.51430541903985
 10
370.1098591284471
 20
97.59662011643982
 10
370.152249956347
 20
97.67889291113981
 10
370.1965175953469
 20
97.76102258943978
 10
370.242683507047
 20
97.84296066183985
 10
370.290768157747
 20
97.92465741353979
 10
370.340759120547
 20
98.00601117693979
  0
LINE
  5
C4B
330
1F
100
AcDbEntity
  8
06___PRT_ALL_SURFS
  6
Continuous
 62
     7
100
AcDbLine
 10
369.991684243747
 20
97.3581950306398
 30
0.0
 11
370.0586751061468
 21
97.50536404413971
 31
0.0
  0
LINE
  5
C4C
330
1F
100
AcDbEntity
  8
06___PRT_ALL_SURFS
  6
Continuous
 62
     7
100
AcDbLine
 10
370.0586751061468
 20
97.50536404413971
 30
0.0
 11
370.166929955547
 21
97.71902244523971
 31
0.0
  0
LINE
  5
C4E
330
1F
100
AcDbEntity
  8
0
  6
Continuous
 62
     7
100
AcDbLine
 10
376.029624908847
 20
106.6128695215398
 30
0.0
 11
376.029624908847
 21
108.1128695215398
 31
0.0
  0
LINE
  5
C51
330
1F
100
AcDbEntity
  8
0
  6
Continuous
 62
     7
100
AcDbLine
 10
422.7296249088469
 20
108.1128695215398
 30
0.0
 11
422.7296249088469
 21
106.6128695215398
 31
0.0
  0
LINE
  5
C52
330
1F
100
AcDbEntity
  8
0
  6
Continuous
 62
     7
100
AcDbLine
 10
426.016616279847
 20
179.8096311180397
 30
0.0
 11
424.2662452045469
 21
108.1128695215398
 31
0.0
  0
ARC
  5
C53
330
1F
100
AcDbEntity
  8
0
  6
Continuous
 62
     7
100
AcDbCircle
 10
220.9845391638469
 20
-379.3798140069603
 30
0.0
 40
426.6793745212999
100
AcDbArc
 50
88.33725971600065
 51
89.99394575159996
  0
ARC
  5
C54
330
1F
100
AcDbEntity
  8
0
  6
Continuous
 62
     7
100
AcDbCircle
 10
191.611280778947
 20
18.61286952153979
 30
0.0
 40
5.0
100
AcDbArc
 50
184.9999999999997
 51
270.0
  0
ARC
  5
C60
330
1F
100
AcDbEntity
  8
0
  6
Continuous
 62
     7
100
AcDbCircle
 10
43.24417002124696
 20
79.30860715793984
 30
0.0
 40
32.2298737419
100
AcDbArc
 50
12.76861249919792
 51
12.92159963630036
  0
ARC
  5
C61
330
1F
100
AcDbEntity
  8
0
  6
Continuous
 62
     7
100
AcDbCircle
 10
61.03413194244694
 20
100.6156825474397
 30
0.0
 40
5.996831665399999
100
AcDbArc
 50
42.811214248998
 51
84.09416815830015
  0
ARC
  5
C62
330
1F
100
AcDbEntity
  8
0
  6
Continuous
 62
     7
100
AcDbCircle
 10
67.49494309284695
 20
95.3675345137398
 30
0.0
 40
4.9869891918
100
AcDbArc
 50
13.00179194709827
 51
45.05595116929836
  0
ARC
  5
C63
330
1F
100
AcDbEntity
  8
0
  6
Continuous
 62
     7
100
AcDbCircle
 10
77.60012731734696
 20
87.10672397623978
 30
0.0
 40
3.0
100
AcDbArc
 50
193.0000366237007
 51
287.6282944411992
  0
ARC
  5
C64
330
1F
100
AcDbEntity
  8
0
  6
Continuous
 62
     7
100
AcDbCircle
 10
77.57163251284699
 20
87.20835228223986
 30
0.0
 40
2.9950469661
100
AcDbArc
 50
195.6554118188013
 51
270.9597273806994
  0
ARC
  5
C65
330
1F
100
AcDbEntity
  8
0
  6
Continuous
 62
     7
100
AcDbCircle
 10
77.51034946684693
 20
87.1917171046398
 30
0.0
 40
2.9313912883
100
AcDbArc
 50
193.0035840528974
 51
195.6226912099026
  0
ARC
  5
CBE
330
1F
100
AcDbEntity
  8
0
  6
Continuous
 62
     7
100
AcDbCircle
 10
181.0083190176469
 20
46.72701143183974
 30
0.0
 40
5.2622180175
100
AcDbArc
 50
4.257382206997909
 51
17.63548831270092
  0
ARC
  5
CBF
330
1F
100
AcDbEntity
  8
0
  6
Continuous
 62
     7
100
AcDbCircle
 10
179.1014480554469
 20
46.86377941363981
 30
0.0
 40
4.999999999799999
100
AcDbArc
 50
5.000000000398657
 51
16.9580868103975
  0
ARC
  5
CC0
330
1F
100
AcDbEntity
  8
0
  6
Continuous
 62
     7
100
AcDbCircle
 10
213.924166572047
 20
242.3179299731398
 30
0.0
 40
202.4614674718
100
AcDbArc
 50
222.825177039101
 51
225.0994099784015
  0
ARC
  5
CC1
330
1F
100
AcDbEntity
  8
0
  6
Continuous
 62
     7
100
AcDbCircle
 10
183.083039744047
 20
219.1477140855397
 30
0.0
 40
166.6631235729
100
AcDbArc
 50
256.2403527802
 51
256.3557377474995
  0
ARC
  5
CC2
330
1F
100
AcDbEntity
  8
0
  6
Continuous
 62
     7
100
AcDbCircle
 10
184.7215253493469
 20
209.4206020512398
 30
0.0
 40
158.4178953312
100
AcDbArc
 50
232.1558125394982
 51
235.3884288175012
  0
ARC
  5
CC3
330
1F
100
AcDbEntity
  8
0
  6
Continuous
 62
     7
100
AcDbCircle
 10
181.0093150172469
 20
210.9059287401398
 30
0.0
 40
158.1647250416
100
AcDbArc
 50
252.5851555599993
 51
256.2217282392994
  0
ARC
  5
CC4
330
1F
100
AcDbEntity
  8
0
  6
Continuous
 62
     7
100
AcDbCircle
 10
182.065933256247
 20
205.6254622825397
 30
0.0
 40
153.7860128598
100
AcDbArc
 50
235.4394261524014
 51
235.7374507263021
  0
ARC
  5
CC5
330
1F
100
AcDbEntity
  8
0
  6
Continuous
 62
     7
100
AcDbCircle
 10
181.2993013688469
 20
204.4960754626398
 30
0.0
 40
152.4210082815
100
AcDbArc
 50
235.7687765053996
 51
236.5258372203999
  0
ARC
  5
CC6
330
1F
100
AcDbEntity
  8
0
  6
Continuous
 62
     7
100
AcDbCircle
 10
179.0227838417469
 20
204.2000810971398
 30
0.0
 40
151.1713816416
100
AcDbArc
 50
252.204889243899
 51
252.5428935812995
  0
ARC
  5
CC8
330
1F
100
AcDbEntity
  8
0
  6
Continuous
 62
     7
100
AcDbCircle
 10
179.0597674292469
 20
201.0722928062398
 30
0.0
 40
148.3298746579
100
AcDbArc
 50
236.5179758742018
 51
240.8803697605996
  0
ARC
  5
CD8
330
1F
100
AcDbEntity
  8
0
  6
Continuous
 62
     7
100
AcDbCircle
 10
221.0747106538469
 20
-379.3798140069603
 30
0.0
 40
426.6793745212999
100
AcDbArc
 50
90.00605424840003
 51
91.66274028399937
  0
ARC
  5
CD9
330
1F
100
AcDbEntity
  8
06___PRT_ALL_SURFS
  6
Continuous
 62
     7
100
AcDbCircle
 10
250.447969038747
 20
18.61286952153979
 30
0.0
 40
5.0
100
AcDbArc
 50
270.0
 51
355.0000000000002
  0
ARC
  5
CFF
330
1F
100
AcDbEntity
  8
06___PRT_ALL_SURFS
  6
Continuous
 62
     7
100
AcDbCircle
 10
261.0509307999469
 20
46.72701143183974
 30
0.0
 40
5.2622180175
100
AcDbArc
 50
162.364511687299
 51
175.742617793002
  0
ARC
  5
D00
330
1F
100
AcDbEntity
  8
06___PRT_ALL_SURFS
  6
Continuous
 62
     7
100
AcDbCircle
 10
262.957801762247
 20
46.86377941363981
 30
0.0
 40
4.999999999799999
100
AcDbArc
 50
163.0506341827981
 51
174.9999999996013
  0
ARC
  5
D0C
330
1F
100
AcDbEntity
  8
0
  6
Continuous
 62
     7
100
AcDbCircle
 10
228.135083246547
 20
242.3179299722398
 30
0.0
 40
202.4614674705
100
AcDbArc
 50
314.9005900215984
 51
317.1748229607008
  0
ARC
  5
D0D
330
1F
100
AcDbEntity
  8
06___PRT_ALL_SURFS
  6
Continuous
 62
     7
100
AcDbCircle
 10
258.9762100421469
 20
219.1477142141398
 30
0.0
 40
166.6631237052
100
AcDbArc
 50
283.6442622109991
 51
283.7596472197997
  0
ARC
  5
D0E
330
1F
100
AcDbEntity
  8
06___PRT_ALL_SURFS
  6
Continuous
 62
     7
100
AcDbCircle
 10
257.337720081847
 20
209.4206086168398
 30
0.0
 40
158.4179032227
100
AcDbArc
 50
304.611564398
 51
307.8442000986999
  0
ARC
  5
D0F
330
1F
100
AcDbEntity
  8
06___PRT_ALL_SURFS
  6
Continuous
 62
     7
100
AcDbCircle
 10
261.049938969147
 20
210.9059299225397
 30
0.0
 40
158.1647250416
100
AcDbArc
 50
283.7782701919997
 51
287.4148428708992
  0
ARC
  5
D10
330
1F
100
AcDbEntity
  8
06___PRT_ALL_SURFS
  6
Continuous
 62
     7
100
AcDbCircle
 10
259.993299285547
 20
205.6254878005398
 30
0.0
 40
153.7860436752
100
AcDbArc
 50
304.2624830072005
 51
304.560665019201
  0
ARC
  5
D11
330
1F
100
AcDbEntity
  8
06___PRT_ALL_SURFS
  6
Continuous
 62
     7
100
AcDbCircle
 10
260.7599486072469
 20
204.4960752251399
 30
0.0
 40
152.421007996
100
AcDbArc
 50
303.4741627791001
 51
304.2312232573999
  0
ARC
  5
D12
330
1F
100
AcDbEntity
  8
06___PRT_ALL_SURFS
  6
Continuous
 62
     7
100
AcDbCircle
 10
263.0364659792469
 20
204.2000810863398
 30
0.0
 40
151.1713816303
100
AcDbArc
 50
287.4571064187005
 51
287.7951107561009
  0
ARC
  5
D14
330
1F
100
AcDbEntity
  8
06___PRT_ALL_SURFS
  6
Continuous
 62
     7
100
AcDbCircle
 10
262.999482388347
 20
201.0722928062398
 30
0.0
 40
148.329874658
100
AcDbArc
 50
299.1196302394003
 51
303.4820241257983
  0
ARC
  5
D29
330
1F
100
AcDbEntity
  8
06___PRT_ALL_SURFS
  6
Continuous
 62
     7
100
AcDbCircle
 10
299.805108510647
 20
52.40804392963982
 30
0.0
 40
4.9999855124
100
AcDbArc
 50
103.7407528298997
 51
159.9992650922979
  0
ARC
  5
D2A
330
1F
100
AcDbEntity
  8
06___PRT_ALL_SURFS
  6
Continuous
 62
     7
100
AcDbCircle
 10
298.6123787522469
 20
52.70721524193971
 30
0.0
 40
4.431678538299999
100
AcDbArc
 50
103.3975863578993
 51
109.6530231351002
  0
ARC
  5
D6C
330
1F
100
AcDbEntity
  8
0
  6
Continuous
 62
     7
100
AcDbCircle
 10
381.026773631547
 20
100.6128695215398
 30
0.0
 40
6.0000000003
100
AcDbArc
 50
95.9175279847008
 51
137.1887857507992
  0
ARC
  5
D6D
330
1F
100
AcDbEntity
  8
06___PRT_ALL_SURFS
  6
Continuous
 62
     7
100
AcDbCircle
 10
374.5647307243469
 20
95.36296011433979
 30
0.0
 40
4.9891216062
100
AcDbArc
 50
134.9444577408983
 51
166.9985132425001
  0
SPLINE
  5
D72
330
1F
100
AcDbEntity
  8
0
  6
Continuous
 62
     7
100
AcDbSpline
210
0.0
220
0.0
230
1.0
 70
     8
 71
     3
 72
    10
 73
     6
 74
     4
 42
0.0000000001
 43
0.0000000001
 44
0.0000000001
 12
0.0
 22
1.0
 32
0.0
 13
0.9425933623931818
 23
0.3339427393615797
 33
0.0
 40
0.0
 40
0.0
 40
0.0
 40
0.0
 40
5.103056506246758
 40
9.536755847321852
 40
10.17987282184055
 40
10.17987282184055
 40
10.17987282184055
 40
10.17987282184055
 10
16.02962490884695
 20
179.8137001898397
 30
0.0
 10
16.02962490884695
 20
181.5147190252553
 30
0.0
 10
16.12397833620209
 20
184.6740745148931
 30
0.0
 10
17.93399322709802
 20
188.0098539110356
 30
0.0
 10
19.47619949017239
 20
188.7440234923396
 30
0.0
 10
19.67826542064696
 20
188.8156115737398
 30
0.0
 11
16.02962490884695
 21
179.8137001898397
 31
0.0
 11
16.58909688164695
 21
184.8859952145399
 31
0.0
 11
19.09573732694696
 21
188.5431038436396
 31
0.0
 11
19.67826542064696
 21
188.8156115737398
 31
0.0
  0
LINE
  5
D73
330
1F
100
AcDbEntity
  8
06___PRT_ALL_SURFS
  6
Continuous
 62
     7
100
AcDbLine
 10
369.3641871668469
 20
95.01482545943977
 30
0.0
 11
369.703509054447
 21
96.4853944312397
 31
0.0
  0
LINE
  5
D74
330
1F
100
AcDbEntity
  8
0
  6
Continuous
 62
     7
100
AcDbLine
 10
143.3400177738469
 20
57.29256616483976
 30
0.0
 11
143.4423092327469
 21
57.26748291573985
 31
0.0
  0
LINE
  5
D76
330
1F
100
AcDbEntity
  8
0
  6
Continuous
 62
     7
100
AcDbLine
 10
143.8919370238469
 20
57.15720137463974
 30
0.0
 11
143.4648338875469
 21
57.2594736551397
 31
0.0
  0
LINE
  5
D77
330
1F
100
AcDbEntity
  8
0
  6
Continuous
 62
     7
100
AcDbLine
 10
143.4648338875469
 20
57.2594736551397
 30
0.0
 11
143.4417028639469
 21
57.26499896613987
 31
0.0
  0
LINE
  5
D78
330
1F
100
AcDbEntity
  8
0
  6
Continuous
 62
     7
100
AcDbLine
 10
94.73858134804698
 20
79.03924084483971
 30
0.0
 11
94.82663491054696
 21
78.97854137463982
 31
0.0
  0
LINE
  5
D79
330
1F
100
AcDbEntity
  8
0
  6
Continuous
 62
     7
100
AcDbLine
 10
95.48656733174695
 20
78.52648058943977
 30
0.0
 11
95.55729972734695
 21
78.47832703003975
 31
0.0
  0
LINE
  5
D7A
330
1F
100
AcDbEntity
  8
0
  6
Continuous
 62
     7
100
AcDbLine
 10
73.82742422064693
 20
90.11367381603978
 30
0.0
 11
72.69506265074693
 21
95.01482545943977
 31
0.0
  0
LINE
  5
D7B
330
1F
100
AcDbEntity
  8
0
  6
Continuous
 62
     7
100
AcDbLine
 10
74.01670978324694
 20
89.29370541843981
 30
0.0
 11
73.83291062124695
 21
90.08987395753981
 31
0.0
  0
LINE
  5
D7C
330
1F
100
AcDbEntity
  8
0
  6
Continuous
 62
     7
100
AcDbLine
 10
110.8427287818469
 20
62.19576240853974
 30
0.0
 11
108.6389610581469
 21
68.97909706203974
 31
0.0
  0
SPLINE
  5
D7D
330
1F
100
AcDbEntity
  8
0
  6
Continuous
 62
     7
100
AcDbSpline
210
0.0
220
0.0
230
1.0
 70
     8
 71
     3
 72
     8
 73
     4
 74
     2
 42
0.0000000001
 43
0.0000000001
 44
0.0000000001
 12
-0.3098891345247652
 22
0.9507726985476036
 32
0.0
 13
-0.946271883027517
 23
-0.323372112884765
 33
0.0
 40
0.0
 40
0.0
 40
0.0
 40
0.0
 40
0.1241012663933189
 40
0.1241012663933189
 40
0.1241012663933189
 40
0.1241012663933189
 10
110.8427287818469
 20
62.19576240853974
 30
0.0
 10
110.8299095705015
 20
62.23509310718706
 30
0.0
 10
110.8436607146589
 20
62.32721105744817
 30
0.0
 10
110.8045162016469
 20
62.31383409453975
 30
0.0
 11
110.8427287818469
 21
62.19576240853974
 31
0.0
 11
110.8045162016469
 21
62.31383409453975
 31
0.0
  0
LINE
  5
D7E
330
1F
100
AcDbEntity
  8
0
  6
Continuous
 62
     7
100
AcDbLine
 10
148.3954450599469
 20
50.15332132893981
 30
0.0
 11
146.9525202040469
 21
54.11819781403984
 31
0.0
  0
SPLINE
  5
D7F
330
1F
100
AcDbEntity
  8
0
  6
Continuous
 62
     7
100
AcDbSpline
210
0.0
220
0.0
230
1.0
 70
     8
 71
     3
 72
     8
 73
     4
 74
     2
 42
0.0000000001
 43
0.0000000001
 44
0.0000000001
 12
-0.3428631063605063
 22
0.9393853790095011
 32
0.0
 13
-0.9319552043029
 23
-0.3625734369375948
 33
0.0
 40
0.0
 40
0.0
 40
0.0
 40
0.0
 40
0.1213178731049894
 40
0.1213178731049894
 40
0.1213178731049894
 40
0.1213178731049894
 10
148.3954450599469
 20
50.15332132893981
 30
0.0
 10
148.3815799190036
 20
50.1913094076756
 30
0.0
 10
148.3919609880853
 20
50.28210154697761
 30
0.0
 10
148.3542733803469
 20
50.26743933423974
 30
0.0
 11
148.3954450599469
 21
50.15332132893981
 31
0.0
 11
148.3542733803469
 21
50.26743933423974
 31
0.0
  0
LINE
  5
D80
330
1F
100
AcDbEntity
  8
06___PRT_ALL_SURFS
  6
Continuous
 62
     7
100
AcDbLine
 10
297.494812333447
 20
56.99650951203978
 30
0.0
 11
297.582853473847
 21
57.01754843383981
 31
0.0
  0
SPLINE
  5
D81
330
1F
100
AcDbEntity
  8
06___PRT_ALL_SURFS
  6
Continuous
 62
     7
100
AcDbSpline
210
0.0
220
0.0
230
1.0
 70
     8
 71
     3
 72
     8
 73
     4
 74
     2
 42
0.0000000001
 43
0.0000000001
 44
0.0000000001
 12
-0.9425938418533037
 22
0.3339413860248965
 32
0.0
 13
-0.9989653119542252
 23
0.0454786269823252
 33
0.0
 40
0.0
 40
0.0
 40
0.0
 40
0.0
 40
1.011074471087651
 40
1.011074471087651
 40
1.011074471087651
 40
1.011074471087651
 10
422.380979920947
 20
188.8156131595398
 30
0.0
 10
422.0633023975795
 20
188.9281596962895
 30
0.0
 10
421.7248383462865
 20
188.991556836199
 30
0.0
 10
421.3881622381468
 20
189.0068842624397
 30
0.0
 11
422.380979920947
 21
188.8156131595398
 31
0.0
 11
421.3881622381468
 21
189.0068842624397
 31
0.0
  0
SPLINE
  5
D82
330
1F
100
AcDbEntity
  8
06___PRT_ALL_SURFS
  6
Continuous
 62
     7
100
AcDbSpline
210
0.0
220
0.0
230
1.0
 70
     8
 71
     3
 72
    10
 73
     6
 74
     4
 42
0.0000000001
 43
0.0000000001
 44
0.0000000001
 12
0.0
 22
1.0
 32
0.0
 13
-0.9425938418694224
 23
0.3339413859794001
 33
0.0
 40
0.0
 40
0.0
 40
0.0
 40
0.0
 40
5.103056506257733
 40
9.53675584727631
 40
10.17987754814631
 40
10.17987754814631
 40
10.17987754814631
 40
10.17987754814631
 10
426.029624908847
 20
179.8137001898397
 30
0.0
 10
426.029624908847
 20
181.5147190252589
 30
0.0
 10
425.9352714516847
 20
184.6740744846078
 30
0.0
 10
424.1252558071855
 20
188.0098555179126
 30
0.0
 10
422.5830474392179
 20
188.7440248421591
 30
0.0
 10
422.380979920947
 20
188.8156131595398
 30
0.0
 11
426.029624908847
 21
179.8137001898397
 31
0.0
 11
425.4701529359468
 21
184.8859952145399
 31
0.0
 11
422.9635124907468
 21
188.5431038436396
 31
0.0
 11
422.380979920947
 21
188.8156131595398
 31
0.0
  0
LINE
  5
D83
330
1F
100
AcDbEntity
  8
06___PRT_ALL_SURFS
  6
Continuous
 62
     7
100
AcDbLine
 10
297.768111379447
 20
57.06176176703981
 30
0.0
 11
298.167312793747
 21
57.15720137463974
 31
0.0
  0
LINE
  5
D84
330
1F
100
AcDbEntity
  8
06___PRT_ALL_SURFS
  6
Continuous
 62
     7
100
AcDbLine
 10
298.167312793747
 20
57.15720137463974
 30
0.0
 11
298.594415930147
 21
57.2594736551397
 31
0.0
  0
LINE
  5
D85
330
1F
100
AcDbEntity
  8
06___PRT_ALL_SURFS
  6
Continuous
 62
     7
100
AcDbLine
 10
298.594415930147
 20
57.2594736551397
 30
0.0
 11
298.6175469536469
 21
57.26499896613987
 31
0.0
  0
LINE
  5
D86
330
1F
100
AcDbEntity
  8
06___PRT_ALL_SURFS
  6
Continuous
 62
     7
100
AcDbLine
 10
298.719232043747
 20
57.29256616483976
 30
0.0
 11
298.616940584847
 21
57.26748291573985
 31
0.0
  0
LINE
  5
D87
330
1F
100
AcDbEntity
  8
06___PRT_ALL_SURFS
  6
Continuous
 62
     7
100
AcDbLine
 10
347.320653126947
 20
79.03923026053975
 30
0.0
 11
347.232816638347
 21
78.97868033453973
 31
0.0
  0
LINE
  5
D88
330
1F
100
AcDbEntity
  8
06___PRT_ALL_SURFS
  6
Continuous
 62
     7
100
AcDbLine
 10
346.5725355599469
 20
78.52638050463977
 30
0.0
 11
346.5019495664468
 21
78.47832667353976
 31
0.0
  0
LINE
  5
D89
330
1F
100
AcDbEntity
  8
0
  6
Continuous
 62
     7
100
AcDbLine
 10
72.69506265074693
 20
95.01482545943977
 30
0.0
 11
72.35574076314694
 21
96.4853944312397
 31
0.0
  0
LINE
  5
D8A
330
1F
100
AcDbEntity
  8
06___PRT_ALL_SURFS
  6
Continuous
 62
     7
100
AcDbLine
 10
368.042540034447
 20
89.29370541843981
 30
0.0
 11
368.2263391964468
 21
90.08987395753981
 31
0.0
  0
SPLINE
  5
D8B
330
1F
100
AcDbEntity
  8
06___PRT_ALL_SURFS
  6
Continuous
 62
     7
100
AcDbSpline
210
0.0
220
0.0
230
1.0
 70
     8
 71
     3
 72
     8
 73
     4
 74
     2
 42
0.0000000001
 43
0.0000000001
 44
0.0000000001
 12
0.3098891345247652
 22
0.9507726985476036
 32
0.0
 13
0.946271883027517
 23
-0.323372112884765
 33
0.0
 40
0.0
 40
0.0
 40
0.0
 40
0.0
 40
0.1241012663932752
 40
0.1241012663932752
 40
0.1241012663932752
 40
0.1241012663932752
 10
331.216521035847
 20
62.19576240853974
 30
0.0
 10
331.2293402471923
 20
62.23509310718704
 30
0.0
 10
331.2155891030348
 20
62.32721105744817
 30
0.0
 10
331.2547336160469
 20
62.31383409453975
 30
0.0
 11
331.216521035847
 21
62.19576240853974
 31
0.0
 11
331.2547336160469
 21
62.31383409453975
 31
0.0
  0
LINE
  5
D8C
330
1F
100
AcDbEntity
  8
06___PRT_ALL_SURFS
  6
Continuous
 62
     7
100
AcDbLine
 10
331.216521035847
 20
62.19576240853974
 30
0.0
 11
333.420288759547
 21
68.97909706203974
 31
0.0
  0
SPLINE
  5
D8D
330
1F
100
AcDbEntity
  8
06___PRT_ALL_SURFS
  6
Continuous
 62
     7
100
AcDbSpline
210
0.0
220
0.0
230
1.0
 70
     8
 71
     3
 72
     8
 73
     4
 74
     2
 42
0.0000000001
 43
0.0000000001
 44
0.0000000001
 12
0.3428631068350979
 22
0.9393853788362815
 32
0.0
 13
0.9320252072372506
 23
-0.3623934506504777
 33
0.0
 40
0.0
 40
0.0
 40
0.0
 40
0.0
 40
0.1213178731003006
 40
0.1213178731003006
 40
0.1213178731003006
 40
0.1213178731003006
 10
293.663804757747
 20
50.15332132893981
 30
0.0
 10
293.6776698987089
 20
50.19130940766712
 30
0.0
 10
293.667285997341
 20
50.28209426895931
 30
0.0
 10
293.704976435947
 20
50.26743933473984
 30
0.0
 11
293.663804757747
 21
50.15332132893981
 31
0.0
 11
293.704976435947
 21
50.26743933473984
 31
0.0
  0
LINE
  5
D8E
330
1F
100
AcDbEntity
  8
06___PRT_ALL_SURFS
  6
Continuous
 62
     7
100
AcDbLine
 10
293.663804757747
 20
50.15332132893981
 30
0.0
 11
295.1067296135469
 21
54.11819781403984
 31
0.0
  0
LINE
  5
D8F
330
1F
100
AcDbEntity
  8
0
  6
Continuous
 62
     7
100
AcDbLine
 10
144.5644374597469
 20
56.99650951783976
 30
0.0
 11
144.4763963437469
 21
57.01754843383981
 31
0.0
  0
SPLINE
  5
D90
330
1F
100
AcDbEntity
  8
0
  6
Continuous
 62
     7
100
AcDbSpline
210
0.0
220
0.0
230
1.0
 70
     8
 71
     3
 72
     8
 73
     4
 74
     2
 42
0.0000000001
 43
0.0000000001
 44
0.0000000001
 12
0.9425933623912353
 22
0.3339427393670738
 32
0.0
 13
0.9989651677611099
 23
0.0454817941600523
 33
0.0
 40
0.0
 40
0.0
 40
0.0
 40
0.0
 40
1.011067615390447
 40
1.011067615390447
 40
1.011067615390447
 40
1.011067615390447
 10
19.67826542064696
 20
188.8156115737398
 30
0.0
 10
19.99594062837888
 20
188.9281578034627
 30
0.0
 10
20.3344021417715
 20
188.9915553418181
 30
0.0
 10
20.67107591844695
 20
189.0068837315398
 30
0.0
 11
19.67826542064696
 21
188.8156115737398
 31
0.0
 11
20.67107591844695
 21
189.0068837315398
 31
0.0
  0
LINE
  5
D91
330
1F
100
AcDbEntity
  8
06___PRT_ALL_SURFS
  6
Continuous
 62
     7
100
AcDbLine
 10
368.231825596947
 20
90.11367381603978
 30
0.0
 11
369.3641871668469
 21
95.01482545943977
 31
0.0
  0
SPLINE
  5
E7B
330
1F
100
AcDbEntity
  8
0
  6
Continuous
 62
     7
100
AcDbSpline
210
0.0
220
0.0
230
1.0
 70
     8
 71
     3
 72
    15
 73
    11
 74
     9
 42
0.0000000001
 43
0.0000000001
 44
0.0000000001
 12
0.9643166632300905
 22
-0.2647515307166032
 32
0.0
 13
0.999985233829404
 23
0.0054343466168519
 33
0.0
 40
0.0
 40
0.0
 40
0.0
 40
0.0
 40
1.120921264262612
 40
4.013034375641754
 40
8.573244103805922
 40
14.63221211398721
 40
21.97349376334889
 40
30.3297745451966
 40
39.39874343365641
 40
48.85149634682351
 40
48.85149634682351
 40
48.85149634682351
 40
48.85149634682351
 10
16.04263433334697
 20
179.8096309251398
 30
0.0
 10
16.40294201777943
 20
179.710709051631
 30
0.0
 10
17.7701615515204
 20
179.9573468176576
 30
0.0
 10
20.60210257749188
 20
179.7799502343435
 30
0.0
 10
25.11894950407239
 20
179.7708259353152
 30
0.0
 10
31.10024395663174
 20
179.83506857133
 30
0.0
 10
38.35437831930557
 20
179.777816478961
 30
0.0
 10
46.60921537157861
 20
179.8275197125391
 30
0.0
 10
55.56873361426903
 20
179.8168190009209
 30
0.0
 10
61.74265806031197
 20
179.7930630076352
 30
0.0
 10
64.89352917104696
 20
179.8101861862398
 30
0.0
 11
16.04263433334697
 21
179.8096309251398
 31
0.0
 11
17.16347859274697
 21
179.8227696787398
 31
0.0
 11
20.05555702614694
 21
179.8369324494397
 31
0.0
 11
24.61541340954693
 21
179.7801651383397
 31
0.0
 11
30.67428986494696
 21
179.8134734946397
 31
0.0
 11
38.01555168914696
 21
179.7964123165398
 31
0.0
 11
46.37180844174696
 21
179.8164520197397
 31
0.0
 11
55.44077668994694
 21
179.8130442356398
 31
0.0
 11
64.89352917104696
 21
179.8101861862398
 31
0.0
  0
SPLINE
  5
E95
330
1F
100
AcDbEntity
  8
06___PRT_ALL_SURFS
  6
Continuous
 62
     7
100
AcDbSpline
210
0.0
220
0.0
230
1.0
 70
     8
 71
     3
 72
     8
 73
     4
 74
     2
 42
0.0000000001
 43
0.0000000001
 44
0.0000000001
 12
-0.1378011506129782
 22
-0.9904599148323669
 32
0.0
 13
-0.0517506719308786
 23
-0.9986600362258933
 33
0.0
 40
0.0
 40
0.0
 40
0.0
 40
0.0
 40
1.202589281923472
 40
1.202589281923472
 40
1.202589281923472
 40
1.202589281923472
 10
233.477111155047
 20
48.31727322133976
 30
0.0
 10
233.421871759459
 20
47.92023439542234
 30
0.0
 10
233.3858902028124
 20
47.52023347259
 30
0.0
 10
233.3651452683469
 20
47.11990752063981
 30
0.0
 11
233.477111155047
 21
48.31727322133976
 31
0.0
 11
233.3651452683469
 21
47.11990752063981
 31
0.0
  0
SPLINE
  5
E99
330
1F
100
AcDbEntity
  8
06___PRT_ALL_SURFS
  6
Continuous
 62
     7
100
AcDbSpline
210
0.0
220
0.0
230
1.0
 70
     8
 71
     3
 72
     9
 73
     5
 74
     3
 42
0.0000000001
 43
0.0000000001
 44
0.0000000001
 12
-0.9695865329327224
 22
-0.2447487592522238
 32
0.0
 13
-0.0069948968997768
 23
0.9999755354094226
 33
0.0
 40
0.0
 40
0.0
 40
0.0
 40
0.0
 40
0.2947791467083743
 40
0.4939100868521757
 40
0.4939100868521757
 40
0.4939100868521757
 40
0.4939100868521757
 10
309.951402055647
 20
60.26740903213978
 30
0.0
 10
309.8561307587011
 20
60.24336008866968
 30
0.0
 10
309.9804007440254
 20
60.57160014590037
 30
0.0
 10
309.9475327506789
 20
60.69492431337749
 30
0.0
 10
309.947068450547
 20
60.76129966953979
 30
0.0
 11
309.951402055647
 21
60.26740903213978
 31
0.0
 11
309.9484932214469
 21
60.56217382653985
 31
0.0
 11
309.947068450547
 21
60.76129966953979
 31
0.0
  0
SPLINE
  5
E9C
330
1F
100
AcDbEntity
  8
0
  6
Continuous
 62
     7
100
AcDbSpline
210
0.0
220
0.0
230
1.0
 70
     8
 71
     3
 72
     8
 73
     4
 74
     2
 42
0.0000000001
 43
0.0000000001
 44
0.0000000001
 12
0.2236535579580119
 22
-0.9746687057727474
 32
0.0
 13
0.8761422235947927
 23
-0.4820526983996381
 33
0.0
 40
0.0
 40
0.0
 40
0.0
 40
0.0
 40
1.4376133805305
 40
1.4376133805305
 40
1.4376133805305
 40
1.4376133805305
 10
73.83022079204696
 20
90.10145698863984
 30
0.0
 10
73.93739657455485
 20
89.63439139763876
 30
0.0
 10
74.39214889145105
 20
89.28229617635318
 30
0.0
 10
74.81200015274693
 20
89.0512943732398
 30
0.0
 11
73.83022079204696
 21
90.10145698863984
 31
0.0
 11
74.81200015274693
 21
89.0512943732398
 31
0.0
  0
SPLINE
  5
EAD
330
1F
100
AcDbEntity
  8
06___PRT_ALL_SURFS
  6
Continuous
 62
     7
100
AcDbSpline
210
0.0
220
0.0
230
1.0
 70
     8
 71
     3
 72
    12
 73
     8
 74
     6
 42
0.0000000001
 43
0.0000000001
 44
0.0000000001
 12
0.9995888809595248
 22
-0.0286717467567864
 32
0.0
 13
0.9970093551537631
 23
0.0772809532541966
 33
0.0
 40
0.0
 40
0.0
 40
0.0
 40
0.0
 40
6.00701846294414
 40
11.69481194030066
 40
16.51348072090998
 40
20.08492196202817
 40
22.41702068431953
 40
22.41702068431953
 40
22.41702068431953
 40
22.41702068431953
 10
233.365161491847
 20
47.11990326453974
 30
0.0
 10
235.3666777796062
 20
47.06249269382879
 30
0.0
 10
239.2649805689913
 20
47.01201772776847
 30
0.0
 10
244.7692300031698
 20
46.98652357095743
 30
0.0
 10
249.4622416725047
 20
46.9860809555426
 30
0.0
 10
253.035450860209
 20
47.01124319639961
 30
0.0
 10
255.0043197284247
 20
47.05557646952597
 30
0.0
 10
255.7793611428469
 20
47.11565207363982
 30
0.0
 11
233.365161491847
 21
47.11990326453974
 31
0.0
 11
239.3713356778469
 21
47.01919347563978
 31
0.0
 11
245.059053404447
 21
46.9898386876397
 31
0.0
 11
249.8777213804469
 21
46.99262334053972
 31
0.0
 11
253.4490130724469
 21
47.02530650763971
 31
0.0
 11
255.7793611428469
 21
47.11565207363982
 31
0.0
  0
SPLINE
  5
EAE
330
1F
100
AcDbEntity
  8
06___PRT_ALL_SURFS
  6
Continuous
 62
     7
100
AcDbSpline
210
0.0
220
0.0
230
1.0
 70
     8
 71
     3
 72
     9
 73
     5
 74
     3
 42
0.0000000001
 43
0.0000000001
 44
0.0000000001
 12
0.9968573580640715
 22
0.0792174707594184
 32
0.0
 13
-0.1015955114306946
 23
-0.9948257898029863
 33
0.0
 40
0.0
 40
0.0
 40
0.0
 40
0.0
 40
1.652666653672871
 40
2.205152089688505
 40
2.205152089688505
 40
2.205152089688505
 40
2.205152089688505
 10
255.7793611428469
 20
47.11565207363982
 30
0.0
 10
256.3285187808939
 20
47.15929209774396
 30
0.0
 10
256.7586676831955
 20
46.92217409149511
 30
0.0
 10
257.9955382163236
 20
47.48276704261943
 30
0.0
 10
257.9768282028469
 20
47.29955812253979
 30
0.0
 11
255.7793611428469
 21
47.11565207363982
 31
0.0
 11
257.426399058047
 21
47.25193550643974
 31
0.0
 11
257.9768282028469
 21
47.29955812253979
 31
0.0
  0
SPLINE
  5
EB4
330
1F
100
AcDbEntity
  8
0
  6
Continuous
 62
     7
100
AcDbSpline
210
0.0
220
0.0
230
1.0
 70
     8
 71
     3
 72
     9
 73
     5
 74
     3
 42
0.0000000001
 43
0.0000000001
 44
0.0000000001
 12
-0.9968573580640715
 22
0.0792174707594184
 32
0.0
 13
0.1015168968136797
 23
-0.9948338150974366
 33
0.0
 40
0.0
 40
0.0
 40
0.0
 40
0.0
 40
1.652666653672814
 40
2.205152089788177
 40
2.205152089788177
 40
2.205152089788177
 40
2.205152089788177
 10
186.2798886748469
 20
47.11565207363982
 30
0.0
 10
185.7307310368
 20
47.15929209774395
 30
0.0
 10
185.3005604805071
 20
46.92217188098801
 30
0.0
 10
184.0637260790771
 20
47.48276852060526
 30
0.0
 10
184.0824216147469
 20
47.29955812253979
 30
0.0
 11
186.2798886748469
 21
47.11565207363982
 31
0.0
 11
184.6328507596469
 21
47.25193550643974
 31
0.0
 11
184.0824216147469
 21
47.29955812253979
 31
0.0
  0
SPLINE
  5
EB5
330
1F
100
AcDbEntity
  8
0
  6
Continuous
 62
     7
100
AcDbSpline
210
0.0
220
0.0
230
1.0
 70
     8
 71
     3
 72
    12
 73
     8
 74
     6
 42
0.0000000001
 43
0.0000000001
 44
0.0000000001
 12
-0.9995888809595248
 22
-0.0286717467567864
 32
0.0
 13
-0.9970093551537631
 23
0.0772809532541966
 33
0.0
 40
0.0
 40
0.0
 40
0.0
 40
0.0
 40
6.00701846294414
 40
11.69481194020067
 40
16.5134807208101
 40
20.0849219620283
 40
22.41702068421969
 40
22.41702068421969
 40
22.41702068421969
 40
22.41702068421969
 10
208.6940883257469
 20
47.11990326453974
 30
0.0
 10
206.6925720379877
 20
47.06249269382879
 30
0.0
 10
202.7942692486361
 20
47.01201772776925
 30
0.0
 10
197.2900198144906
 20
46.98652357095655
 30
0.0
 10
192.5970081451559
 20
46.98608095554449
 30
0.0
 10
189.0237989574513
 20
47.01124319639562
 30
0.0
 10
187.0549300892359
 20
47.05557646952853
 30
0.0
 10
186.2798886748469
 20
47.11565207363982
 30
0.0
 11
208.6940883257469
 21
47.11990326453974
 31
0.0
 11
202.687914139747
 21
47.01919347563978
 31
0.0
 11
197.0001964132469
 21
46.9898386876397
 31
0.0
 11
192.1815284372469
 21
46.99262334053972
 31
0.0
 11
188.6102367451469
 21
47.02530650763971
 31
0.0
 11
186.2798886748469
 21
47.11565207363982
 31
0.0
  0
SPLINE
  5
ECD
330
1F
100
AcDbEntity
  8
06___PRT_ALL_SURFS
  6
Continuous
 62
     7
100
AcDbSpline
210
0.0
220
0.0
230
1.0
 70
     8
 71
     3
 72
     9
 73
     5
 74
     3
 42
0.0000000001
 43
0.0000000001
 44
0.0000000001
 12
0.9903601453383645
 22
0.1385163619410133
 32
0.0
 13
-0.3406735653869802
 23
-0.9401816430065645
 33
0.0
 40
0.0
 40
0.0
 40
0.0
 40
0.0
 40
0.5874852903480511
 40
0.7758894262516487
 40
0.7758894262516487
 40
0.7758894262516487
 40
0.7758894262516487
 10
294.3853001749468
 20
54.21995795563977
 30
0.0
 10
294.5792408474579
 20
54.24708339734406
 30
0.0
 10
294.7916247083531
 20
54.36367632638923
 30
0.0
 10
295.1281220748175
 20
54.17723617878746
 30
0.0
 10
295.1067273052469
 20
54.11819147543976
 30
0.0
 11
294.3853001749468
 21
54.21995795563977
 31
0.0
 11
294.972021313847
 21
54.24991244683976
 31
0.0
 11
295.1067273052469
 21
54.11819147543976
 31
0.0
  0
SPLINE
  5
EEC
330
1F
100
AcDbEntity
  8
0
  6
Continuous
 62
     7
100
AcDbSpline
210
0.0
220
0.0
230
1.0
 70
     8
 71
     3
 72
     8
 73
     4
 74
     2
 42
0.0000000001
 43
0.0000000001
 44
0.0000000001
 12
0.1378011506129782
 22
-0.9904599148323669
 32
0.0
 13
0.0517506719308786
 23
-0.9986600362258933
 33
0.0
 40
0.0
 40
0.0
 40
0.0
 40
0.0
 40
1.202589281914152
 40
1.202589281914152
 40
1.202589281914152
 40
1.202589281914152
 10
208.582138662647
 20
48.31727322133976
 30
0.0
 10
208.6373780582345
 20
47.92023439542542
 30
0.0
 10
208.6733596147817
 20
47.5202334725869
 30
0.0
 10
208.694104549247
 20
47.11990752063981
 30
0.0
 11
208.582138662647
 21
48.31727322133976
 31
0.0
 11
208.694104549247
 21
47.11990752063981
 31
0.0
  0
SPLINE
  5
EF7
330
1F
100
AcDbEntity
  8
06___PRT_ALL_SURFS
  6
Continuous
 62
     7
100
AcDbSpline
210
0.0
220
0.0
230
1.0
 70
     8
 71
     3
 72
    15
 73
    11
 74
     9
 42
0.0000000001
 43
0.0000000001
 44
0.0000000001
 12
-0.9643166632300905
 22
-0.2647515307166032
 32
0.0
 13
-0.999985233829404
 23
0.0054343466168519
 33
0.0
 40
0.0
 40
0.0
 40
0.0
 40
0.0
 40
1.120921264162549
 40
4.013034375641763
 40
8.573244103805906
 40
14.63221211398719
 40
21.97349376334869
 40
30.32977454509638
 40
39.39874343365626
 40
48.85149634672328
 40
48.85149634672328
 40
48.85149634672328
 40
48.85149634672328
 10
426.0166154842468
 20
179.8096309251398
 30
0.0
 10
425.6563077998465
 20
179.7107090516398
 30
0.0
 10
424.2890882661062
 20
179.9573468176649
 30
0.0
 10
421.4571472401354
 20
179.7799502343407
 30
0.0
 10
416.9403003135213
 20
179.7708259353164
 30
0.0
 10
410.9590058609622
 20
179.8350685713297
 30
0.0
 10
403.7048714983217
 20
179.7778164789612
 30
0.0
 10
395.4500344460488
 20
179.8275197125393
 30
0.0
 10
386.4905162033916
 20
179.816819000921
 30
0.0
 10
380.3165917573487
 20
179.7930630076354
 30
0.0
 10
377.1657206466471
 20
179.8101861862398
 30
0.0
 11
426.0166154842468
 21
179.8096309251398
 31
0.0
 11
424.8957712249469
 21
179.8227696787398
 31
0.0
 11
422.0036927914468
 21
179.8369324494397
 31
0.0
 11
417.4438364080469
 21
179.7801651383397
 31
0.0
 11
411.3849599526468
 21
179.8134734946397
 31
0.0
 11
404.043698128447
 21
179.7964123165398
 31
0.0
 11
395.6874413759471
 21
179.8164520197397
 31
0.0
 11
386.618473127647
 21
179.8130442356398
 31
0.0
 11
377.1657206466471
 21
179.8101861862398
 31
0.0
  0
SPLINE
  5
F4F
330
1F
100
AcDbEntity
  8
0
  6
Continuous
 62
     7
100
AcDbSpline
210
0.0
220
0.0
230
1.0
 70
     8
 71
     3
 72
     9
 73
     5
 74
     3
 42
0.0000000001
 43
0.0000000001
 44
0.0000000001
 12
0.6023383336037221
 22
-0.7982408983956481
 32
0.0
 13
-0.2364284607627942
 23
0.9716488990069079
 33
0.0
 40
0.0
 40
0.0
 40
0.0
 40
0.0
 40
0.0045711821259653
 40
0.0217334903000933
 40
0.0217334903000933
 40
0.0217334903000933
 40
0.0217334903000933
 10
65.43196421604696
 20
104.6931994413397
 30
0.0
 10
65.43288201545507
 20
104.6919831398307
 30
0.0
 10
65.43785748351711
 20
104.683653453552
 30
0.0
 10
65.43889939044849
 20
104.7009976012592
 30
0.0
 10
65.43754683774692
 20
104.7065561805398
 30
0.0
 11
65.43196421604696
 21
104.6931994413397
 31
0.0
 11
65.43480097144698
 21
104.6896149574397
 31
0.0
 11
65.43754683774692
 21
104.7065561805398
 31
0.0
  0
ENDSEC
  0
SECTION
  2
OBJECTS
  0
DICTIONARY
  5
C
330
0
100
AcDbDictionary
281
     1
  3
ACAD_2007HEADERVARS_RT
350
10C7
  3
ACAD_COLOR
350
C9
  3
ACAD_GROUP
350
D
  3
ACAD_LAYOUT
350
1A
  3
ACAD_MATERIAL
350
C8
  3
ACAD_MLEADERSTYLE
350
2EC
  3
ACAD_MLINESTYLE
350
17
  3
ACAD_PLOTSETTINGS
350
19
  3
ACAD_PLOTSTYLENAME
350
E
  3
ACAD_SCALELIST
350
2CA
  3
ACAD_TABLESTYLE
350
123
  3
ACAD_VISUALSTYLE
350
296
  3
ACDB_RECOMPOSE_DATA
350
30D
  3
AcDbVariableDictionary
350
9E
  3
AcmDictionary
350
63
  3
AMG
350
49
  3
AMGSNAPSETTINGS
350
9F3
  3
DWGPROPS
350
10C6
  0
DICTIONARY
  5
1039
330
10
100
AcDbDictionary
280
     1
281
     1
  3
ADSK_XREC_LAYER_RECONCILED
360
103A
  0
DICTIONARY
  5
103B
330
38F
100
AcDbDictionary
280
     1
281
     1
  3
ADSK_XREC_LAYER_RECONCILED
360
103C
  0
DICTIONARY
  5
103D
330
390
100
AcDbDictionary
280
     1
281
     1
  3
ADSK_XREC_LAYER_RECONCILED
360
103E
  0
DICTIONARY
  5
99
330
1F
100
AcDbDictionary
280
     1
281
     1
  0
DICTIONARY
  5
10C7
102
{ACAD_REACTORS
330
C
102
}
330
C
100
AcDbDictionary
281
     1
  3
DIMARCSYM
350
10C8
  3
DIMLTEX1
350
10CA
  3
DIMLTEX2
350
10CB
  3
DIMLTYPE
350
10C9
  0
DICTIONARY
  5
C9
102
{ACAD_REACTORS
330
C
102
}
330
C
100
AcDbDictionary
281
     1
  0
DICTIONARY
  5
D
102
{ACAD_REACTORS
330
C
102
}
330
C
100
AcDbDictionary
281
     1
  0
DICTIONARY
  5
1A
102
{ACAD_REACTORS
330
C
102
}
330
C
100
AcDbDictionary
281
     1
  3
Layout1
350
1E
  3
Layout2
350
26
  3
Model
350
22
  0
DICTIONARY
  5
C8
102
{ACAD_REACTORS
330
C
102
}
330
C
100
AcDbDictionary
281
     1
  3
ByBlock
350
294
  3
ByLayer
350
293
  3
Global
350
295
  0
DICTIONARY
  5
2EC
102
{ACAD_REACTORS
330
C
102
}
330
C
100
AcDbDictionary
281
     1
  3
Standard
350
2ED
  0
DICTIONARY
  5
17
102
{ACAD_REACTORS
330
C
102
}
330
C
100
AcDbDictionary
281
     1
  3
Standard
350
18
  0
DICTIONARY
  5
19
102
{ACAD_REACTORS
330
C
102
}
330
C
100
AcDbDictionary
281
     1
  0
ACDBDICTIONARYWDFLT
  5
E
102
{ACAD_REACTORS
330
C
102
}
330
C
100
AcDbDictionary
281
     1
  3
Normal
350
F
100
AcDbDictionaryWithDefault
340
F
  0
DICTIONARY
  5
2CA
102
{ACAD_REACTORS
330
C
102
}
330
C
100
AcDbDictionary
281
     1
  3
A0
350
2CB
  3
A1
350
2CC
  3
A2
350
2CD
  3
A3
350
2CE
  3
A4
350
2CF
  3
A5
350
2D0
  3
A6
350
2D1
  3
A7
350
2D2
  3
A8
350
2D3
  3
A9
350
2D4
  3
B0
350
2D5
  3
B1
350
2D6
  3
B2
350
2D7
  3
B3
350
2D8
  3
B4
350
2D9
  3
B5
350
2DA
  3
B6
350
2DB
  3
B7
350
2DC
  3
B8
350
2DD
  3
B9
350
2DE
  3
C0
350
2DF
  3
C1
350
2E0
  3
C2
350
2E1
  3
C3
350
2E2
  3
C4
350
2E3
  3
C5
350
2E4
  3
C6
350
2E5
  3
C7
350
2E6
  3
C8
350
2E7
  3
C9
350
2E8
  3
D0
350
2E9
  3
D1
350
2EA
  3
D2
350
2EB
  0
DICTIONARY
  5
123
102
{ACAD_REACTORS
330
C
102
}
330
C
100
AcDbDictionary
281
     1
  3
Standard
350
124
  0
DICTIONARY
  5
296
102
{ACAD_REACTORS
330
C
102
}
330
C
100
AcDbDictionary
281
     1
  3
2dWireframe
350
29C
  3
3D Hidden
350
29E
  3
3dWireframe
350
29D
  3
Basic
350
29B
  3
Brighten
350
2A2
  3
ColorChange
350
2A6
  3
Conceptual
350
29F
  3
Dim
350
2A1
  3
Facepattern
350
2A5
  3
Flat
350
297
  3
FlatWithEdges
350
298
  3
Gouraud
350
299
  3
GouraudWithEdges
350
29A
  3
Linepattern
350
2A4
  3
Realistic
350
2A0
  3
Thicken
350
2A3
  0
XRECORD
  5
30D
102
{ACAD_REACTORS
330
C
102
}
330
C
100
AcDbXrecord
280
     1
 90
        1
330
124
  0
DICTIONARY
  5
9E
102
{ACAD_REACTORS
330
C
102
}
330
C
100
AcDbDictionary
281
     1
  3
CANNOSCALE
350
310
  3
CMLEADERSTYLE
350
30E
  3
CTABLESTYLE
350
144
  3
DIMASSOC
350
A0
  3
INDEXCTL
350
9F
  3
LAYEREVAL
350
36B
  3
LAYERNOTIFY
350
36C
  3
LIGHTINGUNITS
350
311
  3
MSLTSCALE
350
30F
  3
SORTENTS
350
103F
  0
DICTIONARY
  5
63
102
{ACAD_REACTORS
330
C
102
}
330
C
100
AcDbDictionary
281
     1
  3
AcmStdDictionary
350
69
  3
AMDTSECTSYM_ARROWCOLOR
350
12C
  0
DICTIONARY
  5
49
102
{ACAD_REACTORS
330
C
102
}
330
C
100
AcDbDictionary
281
     1
  0
DICTIONARY
  5
9F3
102
{ACAD_REACTORS
330
C
102
}
330
C
100
AcDbDictionary
281
     1
  0
XRECORD
  5
10C6
102
{ACAD_REACTORS
330
C
102
}
330
C
100
AcDbXrecord
280
     1
  1
DWGPROPS COOKIE
  2

  3

  4

  6

  7

  8
ko69185
  9

300
AmdtFileType=84
301
=
302
=
303
=
304
=
305
=
306
=
307
=
308
=
309
=
 40
0.0032128472222222
 41
2455303.615051064
 42
2455303.643555972
  1

 90
        1
  0
XRECORD
  5
103A
102
{ACAD_REACTORS
330
1039
102
}
330
1039
100
AcDbXrecord
280
     1
290
     1
  0
XRECORD
  5
103C
102
{ACAD_REACTORS
330
103B
102
}
330
103B
100
AcDbXrecord
280
     1
290
     1
  0
XRECORD
  5
103E
102
{ACAD_REACTORS
330
103D
102
}
330
103D
100
AcDbXrecord
280
     1
290
     1
  0
XRECORD
  5
10C8
102
{ACAD_REACTORS
330
10C7
102
}
330
10C7
100
AcDbXrecord
280
     1
 70
     1
  0
XRECORD
  5
10CA
102
{ACAD_REACTORS
330
10C7
102
}
330
10C7
100
AcDbXrecord
280
     1
340
14
  0
XRECORD
  5
10CB
102
{ACAD_REACTORS
330
10C7
102
}
330
10C7
100
AcDbXrecord
280
     1
340
14
  0
XRECORD
  5
10C9
102
{ACAD_REACTORS
330
10C7
102
}
330
10C7
100
AcDbXrecord
280
     1
340
14
  0
LAYOUT
  5
1E
102
{ACAD_XDICTIONARY
360
10CC
102
}
102
{ACAD_REACTORS
330
1A
102
}
330
1A
100
AcDbPlotSettings
  1

  2

  4

  6

 40
0.0
 41
0.0
 42
0.0
 43
0.0
 44
0.0
 45
0.0
 46
0.0
 47
0.0
 48
0.0
 49
0.0
140
0.0
141
0.0
142
1.0
143
1.0
 70
   688
 72
     0
 73
     0
 74
     5
  7

 75
    16
147
1.0
148
0.0
149
0.0
100
AcDbLayout
  1
Layout1
 70
     1
 71
     1
 10
0.0
 20
0.0
 11
12.0
 21
9.0
 12
0.0
 22
0.0
 32
0.0
 14
1.000000000000000E+20
 24
1.000000000000000E+20
 34
1.000000000000000E+20
 15
-1.000000000000000E+20
 25
-1.000000000000000E+20
 35
-1.000000000000000E+20
146
0.0
 13
0.0
 23
0.0
 33
0.0
 16
1.0
 26
0.0
 36
0.0
 17
0.0
 27
1.0
 37
0.0
 76
     0
330
1B
  0
LAYOUT
  5
26
102
{ACAD_XDICTIONARY
360
10D0
102
}
102
{ACAD_REACTORS
330
1A
102
}
330
1A
100
AcDbPlotSettings
  1

  2

  4

  6

 40
0.0
 41
0.0
 42
0.0
 43
0.0
 44
0.0
 45
0.0
 46
0.0
 47
0.0
 48
0.0
 49
0.0
140
0.0
141
0.0
142
1.0
143
1.0
 70
   688
 72
     0
 73
     0
 74
     5
  7

 75
    16
147
1.0
148
0.0
149
0.0
100
AcDbLayout
  1
Layout2
 70
     1
 71
     2
 10
0.0
 20
0.0
 11
12.0
 21
9.0
 12
0.0
 22
0.0
 32
0.0
 14
0.0
 24
0.0
 34
0.0
 15
0.0
 25
0.0
 35
0.0
146
0.0
 13
0.0
 23
0.0
 33
0.0
 16
1.0
 26
0.0
 36
0.0
 17
0.0
 27
1.0
 37
0.0
 76
     0
330
23
  0
LAYOUT
  5
22
102
{ACAD_XDICTIONARY
360
10CE
102
}
102
{ACAD_REACTORS
330
1A
102
}
330
1A
100
AcDbPlotSettings
  1

  2

  4

  6

 40
0.0
 41
0.0
 42
0.0
 43
0.0
 44
0.0
 45
0.0
 46
0.0
 47
0.0
 48
0.0
 49
0.0
140
0.0
141
0.0
142
1.0
143
1.0
 70
  1712
 72
     0
 73
     0
 74
     0
  7

 75
     0
147
1.0
148
0.0
149
0.0
100
AcDbLayout
  1
Model
 70
     1
 71
     0
 10
0.0
 20
0.0
 11
12.0
 21
9.0
 12
0.0
 22
0.0
 32
0.0
 14
0.0
 24
0.0
 34
0.0
 15
0.0
 25
0.0
 35
0.0
146
0.0
 13
0.0
 23
0.0
 33
0.0
 16
1.0
 26
0.0
 36
0.0
 17
0.0
 27
1.0
 37
0.0
 76
     0
330
1F
331
291
  0
MATERIAL
  5
294
102
{ACAD_XDICTIONARY
360
1055
102
}
102
{ACAD_REACTORS
330
C8
102
}
330
C8
100
AcDbMaterial
  1
ByBlock
 73
     1
 78
     1
172
     1
176
     1
270
     1
274
     1
  0
MATERIAL
  5
293
102
{ACAD_XDICTIONARY
360
1053
102
}
102
{ACAD_REACTORS
330
C8
102
}
330
C8
100
AcDbMaterial
  1
ByLayer
 73
     1
 78
     1
172
     1
176
     1
270
     1
274
     1
  0
MATERIAL
  5
295
102
{ACAD_XDICTIONARY
360
1057
102
}
102
{ACAD_REACTORS
330
C8
102
}
330
C8
100
AcDbMaterial
  1
Global
 73
     1
 78
     1
172
     1
176
     1
270
     1
274
     1
  0
MLEADERSTYLE
  5
2ED
102
{ACAD_REACTORS
330
2EC
102
}
330
2EC
100
AcDbMLeaderStyle
170
     2
171
     1
172
     0
 90
        2
 40
0.0
 41
0.0
173
     1
 91
-1056964608
340
14
 92
       -2
290
     1
 42
0.09
291
     1
 43
0.36
  3
Standard
 44
0.18
300

342
11
174
     1
178
     6
175
     1
176
     0
 93
-1056964608
 45
0.18
292
     0
297
     0
 46
0.18
 94
-1056964608
 47
1.0
 49
1.0
140
1.0
293
     1
141
0.0
294
     1
177
     0
142
1.0
295
     0
296
     0
143
0.125
1001
ACAD_MLEADERVER
1070
     2
  0
MLINESTYLE
  5
18
102
{ACAD_REACTORS
330
17
102
}
330
17
100
AcDbMlineStyle
  2
STANDARD
 70
     0
  3

 62
   256
 51
90.0
 52
90.0
 71
     2
 49
0.5
 62
   256
  6
BYLAYER
 49
-0.5
 62
   256
  6
BYLAYER
  0
ACDBPLACEHOLDER
  5
F
102
{ACAD_REACTORS
330
E
102
}
330
E
  0
SCALE
  5
2CB
102
{ACAD_REACTORS
330
2CA
102
}
330
2CA
100
AcDbScale
 70
     0
300
1:1
140
1.0
141
1.0
290
     1
  0
SCALE
  5
2CC
102
{ACAD_REACTORS
330
2CA
102
}
330
2CA
100
AcDbScale
 70
     0
300
1:2
140
1.0
141
2.0
290
     0
  0
SCALE
  5
2CD
102
{ACAD_REACTORS
330
2CA
102
}
330
2CA
100
AcDbScale
 70
     0
300
1:4
140
1.0
141
4.0
290
     0
  0
SCALE
  5
2CE
102
{ACAD_REACTORS
330
2CA
102
}
330
2CA
100
AcDbScale
 70
     0
300
1:5
140
1.0
141
5.0
290
     0
  0
SCALE
  5
2CF
102
{ACAD_REACTORS
330
2CA
102
}
330
2CA
100
AcDbScale
 70
     0
300
1:8
140
1.0
141
8.0
290
     0
  0
SCALE
  5
2D0
102
{ACAD_REACTORS
330
2CA
102
}
330
2CA
100
AcDbScale
 70
     0
300
1:10
140
1.0
141
10.0
290
     0
  0
SCALE
  5
2D1
102
{ACAD_REACTORS
330
2CA
102
}
330
2CA
100
AcDbScale
 70
     0
300
1:16
140
1.0
141
16.0
290
     0
  0
SCALE
  5
2D2
102
{ACAD_REACTORS
330
2CA
102
}
330
2CA
100
AcDbScale
 70
     0
300
1:20
140
1.0
141
20.0
290
     0
  0
SCALE
  5
2D3
102
{ACAD_REACTORS
330
2CA
102
}
330
2CA
100
AcDbScale
 70
     0
300
1:30
140
1.0
141
30.0
290
     0
  0
SCALE
  5
2D4
102
{ACAD_REACTORS
330
2CA
102
}
330
2CA
100
AcDbScale
 70
     0
300
1:40
140
1.0
141
40.0
290
     0
  0
SCALE
  5
2D5
102
{ACAD_REACTORS
330
2CA
102
}
330
2CA
100
AcDbScale
 70
     0
300
1:50
140
1.0
141
50.0
290
     0
  0
SCALE
  5
2D6
102
{ACAD_REACTORS
330
2CA
102
}
330
2CA
100
AcDbScale
 70
     0
300
1:100
140
1.0
141
100.0
290
     0
  0
SCALE
  5
2D7
102
{ACAD_REACTORS
330
2CA
102
}
330
2CA
100
AcDbScale
 70
     0
300
2:1
140
2.0
141
1.0
290
     0
  0
SCALE
  5
2D8
102
{ACAD_REACTORS
330
2CA
102
}
330
2CA
100
AcDbScale
 70
     0
300
4:1
140
4.0
141
1.0
290
     0
  0
SCALE
  5
2D9
102
{ACAD_REACTORS
330
2CA
102
}
330
2CA
100
AcDbScale
 70
     0
300
8:1
140
8.0
141
1.0
290
     0
  0
SCALE
  5
2DA
102
{ACAD_REACTORS
330
2CA
102
}
330
2CA
100
AcDbScale
 70
     0
300
10:1
140
10.0
141
1.0
290
     0
  0
SCALE
  5
2DB
102
{ACAD_REACTORS
330
2CA
102
}
330
2CA
100
AcDbScale
 70
     0
300
100:1
140
100.0
141
1.0
290
     0
  0
SCALE
  5
2DC
102
{ACAD_REACTORS
330
2CA
102
}
330
2CA
100
AcDbScale
 70
     0
300
1/128" = 1'-0"
140
0.0078125
141
12.0
290
     0
  0
SCALE
  5
2DD
102
{ACAD_REACTORS
330
2CA
102
}
330
2CA
100
AcDbScale
 70
     0
300
1/64" = 1'-0"
140
0.015625
141
12.0
290
     0
  0
SCALE
  5
2DE
102
{ACAD_REACTORS
330
2CA
102
}
330
2CA
100
AcDbScale
 70
     0
300
1/32" = 1'-0"
140
0.03125
141
12.0
290
     0
  0
SCALE
  5
2DF
102
{ACAD_REACTORS
330
2CA
102
}
330
2CA
100
AcDbScale
 70
     0
300
1/16" = 1'-0"
140
0.0625
141
12.0
290
     0
  0
SCALE
  5
2E0
102
{ACAD_REACTORS
330
2CA
102
}
330
2CA
100
AcDbScale
 70
     0
300
3/32" = 1'-0"
140
0.09375
141
12.0
290
     0
  0
SCALE
  5
2E1
102
{ACAD_REACTORS
330
2CA
102
}
330
2CA
100
AcDbScale
 70
     0
300
1/8" = 1'-0"
140
0.125
141
12.0
290
     0
  0
SCALE
  5
2E2
102
{ACAD_REACTORS
330
2CA
102
}
330
2CA
100
AcDbScale
 70
     0
300
3/16" = 1'-0"
140
0.1875
141
12.0
290
     0
  0
SCALE
  5
2E3
102
{ACAD_REACTORS
330
2CA
102
}
330
2CA
100
AcDbScale
 70
     0
300
1/4" = 1'-0"
140
0.25
141
12.0
290
     0
  0
SCALE
  5
2E4
102
{ACAD_REACTORS
330
2CA
102
}
330
2CA
100
AcDbScale
 70
     0
300
3/8" = 1'-0"
140
0.375
141
12.0
290
     0
  0
SCALE
  5
2E5
102
{ACAD_REACTORS
330
2CA
102
}
330
2CA
100
AcDbScale
 70
     0
300
1/2" = 1'-0"
140
0.5
141
12.0
290
     0
  0
SCALE
  5
2E6
102
{ACAD_REACTORS
330
2CA
102
}
330
2CA
100
AcDbScale
 70
     0
300
3/4" = 1'-0"
140
0.75
141
12.0
290
     0
  0
SCALE
  5
2E7
102
{ACAD_REACTORS
330
2CA
102
}
330
2CA
100
AcDbScale
 70
     0
300
1" = 1'-0"
140
1.0
141
12.0
290
     0
  0
SCALE
  5
2E8
102
{ACAD_REACTORS
330
2CA
102
}
330
2CA
100
AcDbScale
 70
     0
300
1-1/2" = 1'-0"
140
1.5
141
12.0
290
     0
  0
SCALE
  5
2E9
102
{ACAD_REACTORS
330
2CA
102
}
330
2CA
100
AcDbScale
 70
     0
300
3" = 1'-0"
140
3.0
141
12.0
290
     0
  0
SCALE
  5
2EA
102
{ACAD_REACTORS
330
2CA
102
}
330
2CA
100
AcDbScale
 70
     0
300
6" = 1'-0"
140
6.0
141
12.0
290
     0
  0
SCALE
  5
2EB
102
{ACAD_REACTORS
330
2CA
102
}
330
2CA
100
AcDbScale
 70
     0
300
1'-0" = 1'-0"
140
12.0
141
12.0
290
     0
  0
TABLESTYLE
  5
124
102
{ACAD_XDICTIONARY
360
30B
102
}
102
{ACAD_REACTORS
330
123
102
}
330
123
100
AcDbTableStyle
  3
Standard
 70
     0
 71
     0
 40
0.06
 41
0.06
280
     0
281
     0
  7
STANDARD
140
0.18
170
     2
 62
     0
 63
     7
283
     0
274
    -2
284
     1
 64
     0
275
    -2
285
     1
 65
     0
276
    -2
286
     1
 66
     0
277
    -2
287
     1
 67
     0
278
    -2
288
     1
 68
     0
279
    -2
289
     1
 69
     0
  7
STANDARD
140
0.25
170
     5
 62
     0
 63
     7
283
     0
274
    -2
284
     1
 64
     0
275
    -2
285
     1
 65
     0
276
    -2
286
     1
 66
     0
277
    -2
287
     1
 67
     0
278
    -2
288
     1
 68
     0
279
    -2
289
     1
 69
     0
  7
STANDARD
140
0.18
170
     5
 62
     0
 63
     7
283
     0
274
    -2
284
     1
 64
     0
275
    -2
285
     1
 65
     0
276
    -2
286
     1
 66
     0
277
    -2
287
     1
 67
     0
278
    -2
288
     1
 68
     0
279
    -2
289
     1
 69
     0
  0
VISUALSTYLE
  5
29C
102
{ACAD_REACTORS
330
296
102
}
330
296
100
AcDbVisualStyle
  2
2dWireframe
 70
     4
 71
     0
 72
     2
 73
     0
 90
        0
 40
-0.6
 41
-30.0
 62
     5
 63
     7
 74
     1
 91
        4
 64
     7
 65
   257
 75
     1
175
     1
 42
1.0
 92
        0
 66
   257
 43
1.0
 76
     1
 77
     6
 78
     2
 67
     7
 79
     5
170
     0
171
     0
290
     0
174
     0
 93
        1
 44
0.0
173
     0
291
     0
 45
0.0
1001
ACAD
1000
AcDbSavedByObjectVersion
1070
     0
1000
AcDbSavedByObjectVersion
1070
     0
  0
VISUALSTYLE
  5
29E
102
{ACAD_REACTORS
330
296
102
}
330
296
100
AcDbVisualStyle
  2
3D Hidden
 70
     6
 71
     1
 72
     2
 73
     2
 90
        0
 40
-0.6
 41
-30.0
 62
     5
 63
     7
 74
     2
 91
        2
 64
     7
 65
   257
 75
     2
175
     1
 42
40.0
 92
        0
 66
   257
 43
1.0
 76
     1
 77
     6
 78
     2
 67
     7
 79
     3
170
     0
171
     0
290
     0
174
     0
 93
        1
 44
0.0
173
     0
291
     0
 45
0.0
1001
ACAD
1000
AcDbSavedByObjectVersion
1070
     0
1000
AcDbSavedByObjectVersion
1070
     0
  0
VISUALSTYLE
  5
29D
102
{ACAD_REACTORS
330
296
102
}
330
296
100
AcDbVisualStyle
  2
3dWireframe
 70
     5
 71
     0
 72
     2
 73
     0
 90
        0
 40
-0.6
 41
-30.0
 62
     5
 63
     7
 74
     1
 91
        4
 64
     7
 65
   257
 75
     1
175
     1
 42
1.0
 92
        0
 66
   257
 43
1.0
 76
     1
 77
     6
 78
     2
 67
     7
 79
     5
170
     0
171
     0
290
     0
174
     0
 93
        1
 44
0.0
173
     0
291
     0
 45
0.0
1001
ACAD
1000
AcDbSavedByObjectVersion
1070
     0
1000
AcDbSavedByObjectVersion
1070
     0
  0
VISUALSTYLE
  5
29B
102
{ACAD_REACTORS
330
296
102
}
330
296
100
AcDbVisualStyle
  2
Basic
 70
     7
 71
     1
 72
     0
 73
     1
 90
        0
 40
-0.6
 41
-30.0
 62
     5
 63
     7
 74
     0
 91
        4
 64
     7
 65
   257
 75
     1
175
     1
 42
1.0
 92
        8
 66
     7
 43
1.0
 76
     1
 77
     6
 78
     2
 67
     7
 79
     5
170
     0
171
     0
290
     0
174
     0
 93
        1
 44
0.0
173
     0
291
     1
 45
0.0
1001
ACAD
1000
AcDbSavedByObjectVersion
1070
     0
1000
AcDbSavedByObjectVersion
1070
     0
  0
VISUALSTYLE
  5
2A2
102
{ACAD_REACTORS
330
296
102
}
330
296
100
AcDbVisualStyle
  2
Brighten
 70
    12
 71
     2
 72
     2
 73
     0
 90
        0
 40
-0.6
 41
-30.0
 62
     5
 63
     7
 74
     1
 91
        4
 64
     7
 65
   257
 75
     1
175
     1
 42
1.0
 92
        8
 66
     7
 43
1.0
 76
     1
 77
     6
 78
     2
 67
     7
 79
     5
170
     0
171
     0
290
     0
174
     0
 93
        1
 44
50.0
173
     0
291
     1
 45
0.0
1001
ACAD
1000
AcDbSavedByObjectVersion
1070
     0
1000
AcDbSavedByObjectVersion
1070
     0
  0
VISUALSTYLE
  5
2A6
102
{ACAD_REACTORS
330
296
102
}
330
296
100
AcDbVisualStyle
  2
ColorChange
 70
    16
 71
     2
 72
     2
 73
     3
 90
        0
 40
-0.6
 41
-30.0
 62
     5
 63
     8
 74
     1
 91
        4
 64
     7
 65
   257
 75
     1
175
     1
 42
1.0
 92
        8
 66
     8
 43
1.0
 76
     1
 77
     6
 78
     2
 67
     7
 79
     5
170
     0
171
     0
290
     0
174
     0
 93
        1
 44
0.0
173
     0
291
     1
 45
0.0
1001
ACAD
1000
AcDbSavedByObjectVersion
1070
     0
1000
AcDbSavedByObjectVersion
1070
     0
  0
VISUALSTYLE
  5
29F
102
{ACAD_REACTORS
330
296
102
}
330
296
100
AcDbVisualStyle
  2
Conceptual
 70
     9
 71
     3
 72
     2
 73
     0
 90
        0
 40
-0.6
 41
-30.0
 62
     5
 63
     7
 74
     2
 91
        2
 64
     7
 65
   257
 75
     1
175
     1
 42
40.0
 92
        8
 66
     7
 43
1.0
 76
     1
 77
     6
 78
     2
 67
     7
 79
     3
170
     0
171
     0
290
     0
174
     0
 93
        1
 44
0.0
173
     0
291
     0
 45
0.0
1001
ACAD
1000
AcDbSavedByObjectVersion
1070
     0
1000
AcDbSavedByObjectVersion
1070
     0
  0
VISUALSTYLE
  5
2A1
102
{ACAD_REACTORS
330
296
102
}
330
296
100
AcDbVisualStyle
  2
Dim
 70
    11
 71
     2
 72
     2
 73
     0
 90
        0
 40
-0.6
 41
-30.0
 62
     5
 63
     7
 74
     1
 91
        4
 64
     7
 65
   257
 75
     1
175
     1
 42
1.0
 92
        8
 66
     7
 43
1.0
 76
     1
 77
     6
 78
     2
 67
     7
 79
     5
170
     0
171
     0
290
     0
174
     0
 93
        1
 44
-50.0
173
     0
291
     1
 45
0.0
1001
ACAD
1000
AcDbSavedByObjectVersion
1070
     0
1000
AcDbSavedByObjectVersion
1070
     0
  0
VISUALSTYLE
  5
2A5
102
{ACAD_REACTORS
330
296
102
}
330
296
100
AcDbVisualStyle
  2
Facepattern
 70
    15
 71
     2
 72
     2
 73
     0
 90
        0
 40
-0.6
 41
-30.0
 62
     5
 63
     7
 74
     1
 91
        4
 64
     7
 65
   257
 75
     1
175
     1
 42
1.0
 92
        8
 66
     7
 43
1.0
 76
     1
 77
     6
 78
     2
 67
     7
 79
     5
170
     0
171
     0
290
     0
174
     0
 93
        1
 44
0.0
173
     0
291
     1
 45
0.0
1001
ACAD
1000
AcDbSavedByObjectVersion
1070
     0
1000
AcDbSavedByObjectVersion
1070
     0
  0
VISUALSTYLE
  5
297
102
{ACAD_REACTORS
330
296
102
}
330
296
100
AcDbVisualStyle
  2
Flat
 70
     0
 71
     2
 72
     1
 73
     1
 90
        2
 40
-0.6
 41
30.0
 62
     5
 63
     7
 74
     0
 91
        4
 64
     7
 65
   257
 75
     1
175
     1
 42
1.0
 92
        8
 66
     7
 43
1.0
 76
     1
 77
     6
 78
     2
 67
     7
 79
     5
170
     0
171
     0
290
     0
174
     0
 93
       13
 44
0.0
173
     0
291
     1
 45
0.0
1001
ACAD
1000
AcDbSavedByObjectVersion
1070
     0
1000
AcDbSavedByObjectVersion
1070
     0
  0
VISUALSTYLE
  5
298
102
{ACAD_REACTORS
330
296
102
}
330
296
100
AcDbVisualStyle
  2
FlatWithEdges
 70
     1
 71
     2
 72
     1
 73
     1
 90
        2
 40
-0.6
 41
30.0
 62
     5
 63
     7
 74
     1
 91
        4
 64
     7
 65
   257
 75
     1
175
     1
 42
1.0
 92
        0
 66
   257
 43
1.0
 76
     1
 77
     6
 78
     2
 67
     7
 79
     5
170
     0
171
     0
290
     0
174
     0
 93
       13
 44
0.0
173
     0
291
     1
 45
0.0
1001
ACAD
1000
AcDbSavedByObjectVersion
1070
     0
1000
AcDbSavedByObjectVersion
1070
     0
  0
VISUALSTYLE
  5
299
102
{ACAD_REACTORS
330
296
102
}
330
296
100
AcDbVisualStyle
  2
Gouraud
 70
     2
 71
     2
 72
     2
 73
     1
 90
        2
 40
-0.6
 41
30.0
 62
     5
 63
     7
 74
     0
 91
        4
 64
     7
 65
   257
 75
     1
175
     1
 42
1.0
 92
        0
 66
     7
 43
1.0
 76
     1
 77
     6
 78
     2
 67
     7
 79
     5
170
     0
171
     0
290
     0
174
     0
 93
       13
 44
0.0
173
     0
291
     1
 45
0.0
1001
ACAD
1000
AcDbSavedByObjectVersion
1070
     0
1000
AcDbSavedByObjectVersion
1070
     0
  0
VISUALSTYLE
  5
29A
102
{ACAD_REACTORS
330
296
102
}
330
296
100
AcDbVisualStyle
  2
GouraudWithEdges
 70
     3
 71
     2
 72
     2
 73
     1
 90
        2
 40
-0.6
 41
30.0
 62
     5
 63
     7
 74
     1
 91
        4
 64
     7
 65
   257
 75
     1
175
     1
 42
1.0
 92
        0
 66
   257
 43
1.0
 76
     1
 77
     6
 78
     2
 67
     7
 79
     5
170
     0
171
     0
290
     0
174
     0
 93
       13
 44
0.0
173
     0
291
     1
 45
0.0
1001
ACAD
1000
AcDbSavedByObjectVersion
1070
     0
1000
AcDbSavedByObjectVersion
1070
     0
  0
VISUALSTYLE
  5
2A4
102
{ACAD_REACTORS
330
296
102
}
330
296
100
AcDbVisualStyle
  2
Linepattern
 70
    14
 71
     2
 72
     2
 73
     0
 90
        0
 40
-0.6
 41
-30.0
 62
     5
 63
     7
 74
     1
 91
        4
 64
     7
 65
   257
 75
     7
175
     7
 42
1.0
 92
        8
 66
     7
 43
1.0
 76
     1
 77
     6
 78
     2
 67
     7
 79
     5
170
     0
171
     0
290
     0
174
     0
 93
        1
 44
0.0
173
     0
291
     1
 45
0.0
1001
ACAD
1000
AcDbSavedByObjectVersion
1070
     0
1000
AcDbSavedByObjectVersion
1070
     0
  0
VISUALSTYLE
  5
2A0
102
{ACAD_REACTORS
330
296
102
}
330
296
100
AcDbVisualStyle
  2
Realistic
 70
     8
 71
     2
 72
     2
 73
     0
 90
        0
 40
-0.6
 41
-30.0
 62
     5
 63
     7
 74
     1
 91
        0
 64
     7
 65
   257
 75
     1
175
     1
 42
1.0
 92
        8
 66
     8
 43
1.0
 76
     1
 77
     6
 78
     2
 67
     7
 79
     5
170
     0
171
     0
290
     0
174
     0
 93
       13
 44
0.0
173
     0
291
     0
 45
0.0
1001
ACAD
1000
AcDbSavedByObjectVersion
1070
     0
1000
AcDbSavedByObjectVersion
1070
     0
  0
VISUALSTYLE
  5
2A3
102
{ACAD_REACTORS
330
296
102
}
330
296
100
AcDbVisualStyle
  2
Thicken
 70
    13
 71
     2
 72
     2
 73
     0
 90
        0
 40
-0.6
 41
-30.0
 62
     5
 63
     7
 74
     1
 91
        4
 64
     7
 65
   257
 75
     1
175
     1
 42
1.0
 92
       12
 66
     7
 43
1.0
 76
     1
 77
     6
 78
     2
 67
     7
 79
     5
170
     0
171
     0
290
     0
174
     0
 93
        1
 44
0.0
173
     0
291
     1
 45
0.0
1001
ACAD
1000
AcDbSavedByObjectVersion
1070
     0
1000
AcDbSavedByObjectVersion
1070
     0
  0
DICTIONARYVAR
  5
310
102
{ACAD_REACTORS
330
9E
102
}
330
9E
100
DictionaryVariables
280
     0
  1
1:1
  0
DICTIONARYVAR
  5
30E
102
{ACAD_REACTORS
330
9E
102
}
330
9E
100
DictionaryVariables
280
     0
  1
STANDARD
  0
DICTIONARYVAR
  5
144
102
{ACAD_REACTORS
330
9E
102
}
330
9E
100
DictionaryVariables
280
     0
  1
STANDARD
  0
DICTIONARYVAR
  5
A0
102
{ACAD_REACTORS
330
9E
102
}
330
9E
100
DictionaryVariables
280
     0
  1
2
  0
DICTIONARYVAR
  5
9F
102
{ACAD_REACTORS
330
9E
102
}
330
9E
100
DictionaryVariables
280
     0
  1
0
  0
DICTIONARYVAR
  5
36B
102
{ACAD_REACTORS
330
9E
102
}
330
9E
100
DictionaryVariables
280
     0
  1
1
  0
DICTIONARYVAR
  5
36C
102
{ACAD_REACTORS
330
9E
102
}
330
9E
100
DictionaryVariables
280
     0
  1
15
  0
DICTIONARYVAR
  5
311
102
{ACAD_REACTORS
330
9E
102
}
330
9E
100
DictionaryVariables
280
     0
  1
0
  0
DICTIONARYVAR
  5
30F
102
{ACAD_REACTORS
330
9E
102
}
330
9E
100
DictionaryVariables
280
     0
  1
0
  0
DICTIONARYVAR
  5
103F
102
{ACAD_REACTORS
330
9E
102
}
330
9E
100
DictionaryVariables
280
     0
  1
127
  0
DICTIONARY
  5
69
102
{ACAD_REACTORS
330
63
102
}
330
63
100
AcDbDictionary
281
     1
  0
XRECORD
  5
12C
102
{ACAD_REACTORS
330
63
102
}
330
63
100
AcDbXrecord
280
     1
 90
-1023410169
  0
DICTIONARY
  5
10CC
330
1E
100
AcDbDictionary
280
     1
281
     1
  3
ACAD_XREC_ROUNDTRIP
360
10CD
  0
DICTIONARY
  5
10D0
330
26
100
AcDbDictionary
280
     1
281
     1
  3
ACAD_XREC_ROUNDTRIP
360
10D1
  0
DICTIONARY
  5
10CE
330
22
100
AcDbDictionary
280
     1
281
     1
  3
ACAD_XREC_ROUNDTRIP
360
10CF
  0
DICTIONARY
  5
1055
330
294
100
AcDbDictionary
280
     1
281
     1
  3
ACAD_XREC_ROUNDTRIP
360
1056
  0
DICTIONARY
  5
1053
330
293
100
AcDbDictionary
280
     1
281
     1
  3
ACAD_XREC_ROUNDTRIP
360
1054
  0
DICTIONARY
  5
1057
330
295
100
AcDbDictionary
280
     1
281
     1
  3
ACAD_XREC_ROUNDTRIP
360
1058
  0
DICTIONARY
  5
30B
330
124
100
AcDbDictionary
280
     1
281
     1
  3
ACAD_ROUNDTRIP_2008_TABLESTYLE_CELLSTYLEMAP
360
10C5
  3
ACAD_XREC_ROUNDTRIP
360
10D2
  0
XRECORD
  5
10CD
102
{ACAD_REACTORS
330
10CC
102
}
330
10CC
100
AcDbXrecord
280
     1
102
SHADEPLOT
 70
     0
102
SHADEPLOTRESLEVEL
 70
     2
102
SHADEPLOTCUSTOMDPI
 70
   300
  0
XRECORD
  5
10D1
102
{ACAD_REACTORS
330
10D0
102
}
330
10D0
100
AcDbXrecord
280
     1
102
SHADEPLOT
 70
     0
102
SHADEPLOTRESLEVEL
 70
     2
102
SHADEPLOTCUSTOMDPI
 70
   300
  0
XRECORD
  5
10CF
102
{ACAD_REACTORS
330
10CE
102
}
330
10CE
100
AcDbXrecord
280
     1
102
SHADEPLOT
 70
     0
102
SHADEPLOTRESLEVEL
 70
     2
102
SHADEPLOTCUSTOMDPI
 70
   300
  0
XRECORD
  5
1056
102
{ACAD_REACTORS
330
1055
102
}
330
1055
100
AcDbXrecord
280
     1
102
MATERIAL
148
0.0
149
0.0
149
0.0
 93
        0
 94
      127
282
     0
 72
     1
 77
     1
171
     1
175
     1
179
     1
273
     0
  0
XRECORD
  5
1054
102
{ACAD_REACTORS
330
1053
102
}
330
1053
100
AcDbXrecord
280
     1
102
MATERIAL
148
0.0
149
0.0
149
0.0
 93
        0
 94
      127
282
     0
 72
     1
 77
     1
171
     1
175
     1
179
     1
273
     0
  0
XRECORD
  5
1058
102
{ACAD_REACTORS
330
1057
102
}
330
1057
100
AcDbXrecord
280
     1
102
MATERIAL
148
0.0
149
0.0
149
0.0
 93
        0
 94
      127
282
     0
 72
     1
 77
     1
171
     1
175
     1
179
     1
273
     0
  0
CELLSTYLEMAP
  5
10C5
102
{ACAD_REACTORS
330
30B
102
}
330
30B
100
AcDbCellStyleMap
 90
        3
300
CELLSTYLE
  1
TABLEFORMAT_BEGIN
 90
        5
170
     1
 91
        0
 92
    32768
 62
   257
 93
        1
300
CONTENTFORMAT
  1
CONTENTFORMAT_BEGIN
 90
        0
 91
        0
 92
      512
 93
        0
300

 40
0.0
140
1.0
 94
        5
 62
     0
340
11
144
0.25
309
CONTENTFORMAT_END
171
     1
301
MARGIN
  1
CELLMARGIN_BEGIN
 40
0.06
 40
0.06
 40
0.06
 40
0.06
 40
0.18
 40
0.18
309
CELLMARGIN_END
 94
        6
 95
        1
302
GRIDFORMAT
  1
GRIDFORMAT_BEGIN
 90
        0
 91
        1
 62
     0
 92
       -2
340
0
 93
        0
 40
0.045
309
GRIDFORMAT_END
 95
        2
302
GRIDFORMAT
  1
GRIDFORMAT_BEGIN
 90
        0
 91
        1
 62
     0
 92
       -2
340
0
 93
        0
 40
0.045
309
GRIDFORMAT_END
 95
        4
302
GRIDFORMAT
  1
GRIDFORMAT_BEGIN
 90
        0
 91
        1
 62
     0
 92
       -2
340
0
 93
        0
 40
0.045
309
GRIDFORMAT_END
 95
        8
302
GRIDFORMAT
  1
GRIDFORMAT_BEGIN
 90
        0
 91
        1
 62
     0
 92
       -2
340
0
 93
        0
 40
0.045
309
GRIDFORMAT_END
 95
       16
302
GRIDFORMAT
  1
GRIDFORMAT_BEGIN
 90
        0
 91
        1
 62
     0
 92
       -2
340
0
 93
        0
 40
0.045
309
GRIDFORMAT_END
 95
       32
302
GRIDFORMAT
  1
GRIDFORMAT_BEGIN
 90
        0
 91
        1
 62
     0
 92
       -2
340
0
 93
        0
 40
0.045
309
GRIDFORMAT_END
309
TABLEFORMAT_END
  1
CELLSTYLE_BEGIN
 90
        1
 91
        1
300
_TITLE
309
CELLSTYLE_END
300
CELLSTYLE
  1
TABLEFORMAT_BEGIN
 90
        5
170
     1
 91
        0
 92
        0
 62
   257
 93
        1
300
CONTENTFORMAT
  1
CONTENTFORMAT_BEGIN
 90
        0
 91
        0
 92
      512
 93
        0
300

 40
0.0
140
1.0
 94
        5
 62
     0
340
11
144
0.18
309
CONTENTFORMAT_END
171
     1
301
MARGIN
  1
CELLMARGIN_BEGIN
 40
0.06
 40
0.06
 40
0.06
 40
0.06
 40
0.18
 40
0.18
309
CELLMARGIN_END
 94
        6
 95
        1
302
GRIDFORMAT
  1
GRIDFORMAT_BEGIN
 90
        0
 91
        1
 62
     0
 92
       -2
340
0
 93
        0
 40
0.045
309
GRIDFORMAT_END
 95
        2
302
GRIDFORMAT
  1
GRIDFORMAT_BEGIN
 90
        0
 91
        1
 62
     0
 92
       -2
340
0
 93
        0
 40
0.045
309
GRIDFORMAT_END
 95
        4
302
GRIDFORMAT
  1
GRIDFORMAT_BEGIN
 90
        0
 91
        1
 62
     0
 92
       -2
340
0
 93
        0
 40
0.045
309
GRIDFORMAT_END
 95
        8
302
GRIDFORMAT
  1
GRIDFORMAT_BEGIN
 90
        0
 91
        1
 62
     0
 92
       -2
340
0
 93
        0
 40
0.045
309
GRIDFORMAT_END
 95
       16
302
GRIDFORMAT
  1
GRIDFORMAT_BEGIN
 90
        0
 91
        1
 62
     0
 92
       -2
340
0
 93
        0
 40
0.045
309
GRIDFORMAT_END
 95
       32
302
GRIDFORMAT
  1
GRIDFORMAT_BEGIN
 90
        0
 91
        1
 62
     0
 92
       -2
340
0
 93
        0
 40
0.045
309
GRIDFORMAT_END
309
TABLEFORMAT_END
  1
CELLSTYLE_BEGIN
 90
        2
 91
        1
300
_HEADER
309
CELLSTYLE_END
300
CELLSTYLE
  1
TABLEFORMAT_BEGIN
 90
        5
170
     1
 91
        0
 92
        0
 62
   257
 93
        1
300
CONTENTFORMAT
  1
CONTENTFORMAT_BEGIN
 90
        0
 91
        0
 92
      512
 93
        0
300

 40
0.0
140
1.0
 94
        2
 62
     0
340
11
144
0.18
309
CONTENTFORMAT_END
171
     1
301
MARGIN
  1
CELLMARGIN_BEGIN
 40
0.06
 40
0.06
 40
0.06
 40
0.06
 40
0.18
 40
0.18
309
CELLMARGIN_END
 94
        6
 95
        1
302
GRIDFORMAT
  1
GRIDFORMAT_BEGIN
 90
        0
 91
        1
 62
     0
 92
       -2
340
0
 93
        0
 40
0.045
309
GRIDFORMAT_END
 95
        2
302
GRIDFORMAT
  1
GRIDFORMAT_BEGIN
 90
        0
 91
        1
 62
     0
 92
       -2
340
0
 93
        0
 40
0.045
309
GRIDFORMAT_END
 95
        4
302
GRIDFORMAT
  1
GRIDFORMAT_BEGIN
 90
        0
 91
        1
 62
     0
 92
       -2
340
0
 93
        0
 40
0.045
309
GRIDFORMAT_END
 95
        8
302
GRIDFORMAT
  1
GRIDFORMAT_BEGIN
 90
        0
 91
        1
 62
     0
 92
       -2
340
0
 93
        0
 40
0.045
309
GRIDFORMAT_END
 95
       16
302
GRIDFORMAT
  1
GRIDFORMAT_BEGIN
 90
        0
 91
        1
 62
     0
 92
       -2
340
0
 93
        0
 40
0.045
309
GRIDFORMAT_END
 95
       32
302
GRIDFORMAT
  1
GRIDFORMAT_BEGIN
 90
        0
 91
        1
 62
     0
 92
       -2
340
0
 93
        0
 40
0.045
309
GRIDFORMAT_END
309
TABLEFORMAT_END
  1
CELLSTYLE_BEGIN
 90
        3
 91
        2
300
_DATA
309
CELLSTYLE_END
  0
XRECORD
  5
10D2
102
{ACAD_REACTORS
330
30B
102
}
330
30B
100
AcDbXrecord
280
     1
102
ACAD_ROUNDTRIP_PRE2007_TABLESTYLE
 90
      512
 91
        0
  1

 92
      512
 93
        0
  2

 94
      512
 95
        0
  3

  0
ENDSEC
  0
EOF
